PrimaNota.ru - самый крупный в мире бесплатный архив песенных текстов, аккордов, табулатур и нот


I See Stars - Gnars Attacks - таба, видео

Регистрация Запомнить меня
Войти через:  Facebook Google Twitter Vk Yandex Mail.ru

I See Stars - Gnars Attacks - таба, видео

Печатать
Просмотров: 182
Artist: I See Stars                                    Tabbed by: Josey Stines
Song:   Gnars Attacks
Album:  Digital Renegade
Year:   2012
Tuning: Drop D
______________________________________________________________________________
Intro:
0:25
(I think this is all Tremelo)
E--------------------------------------------------------------------|
B--------------------------------------------------------------------|
G---777-101010-99-121212-101010-99-141414-101010-99-12-------6-------|
D---xxx-x-x-x--xx-x-x-x--x-x-x--xx-x-x-x--x-x-x--xx-x--(x4)--x--(x4)-| x2
A---555-8-8-8--77-101010-8-8-8--77-121212-8-8-8--77-10-------4-------|
D--------------------------------------------------------------------|

Chorus:
0:38
(This part confused me)
E--------------------------------------------------------------------------|
B--------------------------------------------------------------------------|
G----------------(Tremelo Pick This)---------------------------------------|(Tremelo pick this)
D---3p0-5p0-7p0-8p0-999910101010-------3p0-5p0-7p0-8p0-101077777799777777--| x4
A--------------------------------------------------------------------------|
D--------------------------------------------------------------------------|

Pre-Breakdown:
1:03
E------|
B------|
G------|
D---0~-
A---0~-
D---0~-

Breakdown:
1:06
E-------------------------------------------------------------------|
B-------------------------------------------------------------------|
G-------------------------------------------------------------------|
D-------------------------------------------------------------------|
A---0--000-000-0-00-000000-000-0-00-000000-000-0-00-000-0-0-0-------|
D---0--000-000-0-00-000000-000-0-00-000000-000-0-00-000-1-1-1-0-0-0-|
    *  *** *** * ** ****** *** * ** ****** *** * ** *** * * *
1:15
E--------------------------------------------------------------------|
B--------------------------------------------------------------------|
G--------------------------------------------------------------------|
D-----------------------------------------------------------------7~-|
A---000-000-0-00-000000-000-0-00-000000-000-0-00-000-0-0-0-00-0-0-7~-|
D---000-000-0-00-000000-000-0-00-000000-000-0-00-000-1-1-1-00-0-0-7~-|
    *** *** * ** ****** *** * ** ****** *** * ** *** * * * ** * *

Chorus:
1:53
E---------------------------------------|
B---------------------------------------|
G---------------------------------------|
D---7--------10--------3--------0-------| x4
A---7--(x8)--10--(x8)--3--(x8)--0--(x8)-|
D---7--------10--------3--------0-------|

Pre-Breakdown:
2:22
E------|
B------|
G------|
D---0~-
A---0~-
D---0~-

Breakdown:
2:30
E------------------------------------------------|
B------------------------------------------------|
G------------------------------------------------|
D------------------------------------------------| x2
A---0-000-000-0-000-000-0-000-000-0-0-000-000000-|
D---0-000-000-0-000-000-0-000-000-0-0-000-000000-|
    * *** *** * *** *** * *** *** * * *** ******
2:44
E-------------------------------------------------------|
B-------------------------------------------------------|
G-------------------------------------------------------|
D---(Let the notes ring)--------------------------------|
A---0-000~-000~-0-000~-000~-0-000~-000~-0-0-000~-000000-|
D---0-000~-000~-0-000~-000~-0-000~-000~-0-0-000~-000000-|
    * ***  ***  * ***  ***  * ***  ***  * * ***  ******
2:52
E------------------------------------------------|
B------------------------------------------------|
G------------------------------------------------|
D------------------------------------------------|
A---0-000-000-0-000-000-0-000-000-0-0-000-000000-|
D---0-000-000-0-000-000-0-000-000-0-0-000-000000-|
    * *** *** * *** *** * *** *** * * *** ******
Outro:
2:59
E-------------------|
B-------------------|
G---(Fade Out)------|
D---7~--10~--3~--0~-| Repeat until
A---7~--10~--3~--0~-| song ends
D---7~--10~--3~--0~-|

Legend:
x     Dead Note
h     Hamer-On
p     Pull-Off
~     Let the Notes ring
Добавлено: 24.08.2013
Другие материалы по этой песне:
  • Аккорды и текст

Страница создана 24.08.2013
http://primanota.ru/i-see-stars/gnars-attacks-chords.htm
Привет, Гость.
Предлагаем пройти революционный курс по гитаре.
Подарок от PrimaNota.Ru, забирай!