PrimaNota.ru - самый крупный в мире бесплатный архив песенных текстов, аккордов, табулатур и нот


I See Stars - Glow - таба, видео

Регистрация Запомнить меня
Войти через:  Facebook Google Twitter Vk Yandex Mail.ru

I See Stars - Glow - таба, видео

Печатать
Просмотров: 382
Artist: I See Stars					Tabbed by: Josey Stines
Song:	Glow
Album:	The End of the World Party
Year:	2011
Tuning:	Drop D
______________________________________________________________________________

Intro: x2 (0:00)
E----10----14----10----10----10----12----10----10----10----12----10----10-----------|
B-10----10----10----10----10----10----10----10----11----11----11----11----14~-15/---|
G-----------------------------------------------------------------------------------|
D-----------------------------------------------------------------------------------|
A-----------------------------------------------------------------------------------|
D-----------------------------------------------------------------------------------|

Verse: (0:17)
E---------------------------------------------------------------------------|
B---------------------------------------------------------------------------|
G---------------------------------------------------------------------------|
D-0---------5---------------------------------------------------------------|
A-0--(x16)--5--(x16)--5/99-12/77-9/55-5/77-7/99-12/77-9/55555555--7--(x8)---|
D-0---------5---------5/99-12/77-9/55-5/77-7/99-12/77-9/55555555--7---------|

Chorus: (0:36, 1:25)
E--14-10-------------------14-10------------------14-10--------------------|
B--------14-12-------------------14-12------------------14-12--------------|
G--------------11-EEEEEEEE------------------------------------9/EEEEEEEE---|
D--------------------------------------9/FFFFFFFF--------------------------|
A--------------------------------------------------------------------------|
D--------------------------------------------------------------------------|

E--14-10-----------------------------------------------------------------------------------------|
B--------14-12-----------------------------------------------------------------------------------|
G--------------10-10-10b----------7-----------------------------------7--------------------------|
D------------------------9--------7--(x8)--5--------4--------9--------7--(x8)--5--------4--------|
A------------------------9--(x8)--5--------5--(x8)--4--(x8)--9--(x8)--5--------5--(x8)--4--(x8)--|
D------------------------9-----------------5--------4--------9-----------------5--------4--------|

Verse: (1:04)
E----------------------------------------------------------------------------------------|
B----------------------------------------------------------------------------------------|
G----------------------------------------------------------------------------------------|
D----------------------------------------------------------------------------------------|
A-55-5/77-7/99-12/77-9/55555555-7--------7/99-12/77-9/55-5/77-7/99-12/77-9/55555555-77---|
D-55-5/77-7/99-12/77-9/55555555-7--(x8)--7/99-12/77-9/55-5/77-7/99-12/77-9/55555555-77---|

Bridge: (1:49)
E-----------------14-10-------------------14-10--------------------|
B-----------------------14-12-------------------14-12--------------|
G-----------------------------11-EEEEEEEb--------------------------|
D-9~-9~-----------------------------------------------9/FFFFFFFb---|
A-9~-9~------------------------------------------------------------|
D-9~-9~-9999-0000--------------------------------------------------|

E-14-10--------14-FFFFFFFb--14-10--------10-TTTTTTTb---|
B-------14-12---------------------14-12----------------|
G------------------------------------------------------|
D------------------------------------------------------|
A------------------------------------------------------|
D------------------------------------------------------|

Bridge Part 2: (2:11) x5
E-14-14--------12-12--------10-10--------9/10-10----------|
B-------121212-------121212-------121212---------121212---|
G---------------------------------------------------------|
D---------------------------------------------------------|
A---------------------------------------------------------|
D---------------------------------------------------------|

Bridge Part 3: (2:31)
E-14141414-12121212-10101010-9h10p9h14---|
B----------------------------------------|
G----------------------------------------|
D----------------------------------------|
A----------------------------------------|
D----------------------------------------|

Outro:  (2:35)
E-----------------------------------------------------------------|
B-----------------------------------------------------------------|
G-----------------------------------------------------------------|
D-9--------7--------9--------7--------9--------7--------9---------|
A-9--(x8)--7--(x8)--9--(x8)--7--(x8)--9--(x8)--7--(x8)--9--(x8)---|
D-9--------7--------9--------7--------9--------7--------9---------|

E---------------------------------------|
B---------------------------------------|
G---------------------------------------|
D-7--------2--------5--------999-99-9---|
A-7--(x8)--2--(x8)--5--(x8)--999-99-9---|
D-7--------2--------5--------999-99-9---|


Legend:
~	Hold Note
/	Slide Down
E	Eleventh Fret
F	Fourteenth Fret
T	Tenth Fret
b	Bend Note
h	Hammer On
p	Pull-Off

END
Добавлено: 17.04.2012
Другие материалы по этой песне:
  • Аккорды и текст

Страница создана 17.04.2012
http://primanota.ru/i-see-stars/glow-chords.htm
Привет, Гость.
Предлагаем пройти революционный курс по гитаре.
Подарок от PrimaNota.Ru, забирай!