PrimaNota.ru - самый крупный в мире бесплатный архив песенных текстов, аккордов, табулатур и нот


I Prevail - Blank Space - таба, видео

Регистрация Запомнить меня
Войти через:  Facebook Google Twitter Vk Yandex Mail.ru

I Prevail - Blank Space - таба, видео

Печатать
Просмотров: 212
Авторы: Taylor Swift, Max Martin, Shellback

-----------------------------------------------------------------------------------------------------------
                                      Blank Space - I Prevail
-----------------------------------------------------------------------------------------------------------
Tabbed by: Lachlann
E-mail: Lachlannnn@gmail.com

Tuning: B F# B E G# C#


                                             ~Piano intro bit~
                                            (Guitar 1) *JORDAN*

e|-22--17--20--17----------22--17--24--24b^-----------------------------------------------------------|
B|--------------- ------- ----------------------------------------------------------------------------|
G|--------------- Reapeat ----------------------------------------------------------------------------|
D|---------------   3x    ----------------------------------------------------------------------------|
A|--------------- ------- ----------------------------------------------------------------------------|
E|----------------------------------------------------------------------------------------------------|


                                               ~Verse chug~
                                            (Both guitars play)

e|----------------------------------------------------------------------------------------------------|
B|----------------------------------------------------------------------------------------------------|
G|----------------------------------------------------------------------------------------------------|
D|-00--0--0----000-0-0-0----00--0--0----0--0-0-0-0----88--8--8----888-8-8-8----88--8--8----8--8-8-8-8-|
A|-00--0--0----000-0-0-0----00--0--0----0--0-0-0-0----88--8--8----888-8-8-8----88--8--8----8--8-8-8-8-|
E|-00--0--0----000-0-0-0----00--0--0----0--0-0-0-0----88--8--8----888-8-8-8----88--8--8----8--8-8-8-8-|
   **  *  *    *** * * *    **  *  *    *  * * * *    **  *  *    *** * * *    **  *  *    *  * * * *
e|----------------------------------------------------------------------------------------------------|
B|----------------------------------------------------------------------------------------------------|
G|----------------------------------------------------------------------------------------------------|
D|-55--5--5----555-5-5-5----55--5--5----5--5-5-5-5----88--8--8----888-8-8-8----88--8--8---------------|
A|-55--5--5----555-5-5-5----55--5--5----5--5-5-5-5----88--8--8----888-8-8-8----88--8--8---------------|
E|-55--5--5----555-5-5-5----55--5--5----5--5-5-5-5----88--8--8----888-8-8-8----88--8--8---------------|
   **  *  *    *** * * *    **  *  *    *  * * * *    **  *  *    *** * * *    **  *  *  (I can make
                                                                                        the good girls
                                                                                      bad for a weekend)
                                            
                                                ~Chorus~
                                           (Guitar 1) *JORDAN*

e|----------------------------------------------------------------------------------------------------|
B|----------------------------------------------------------------------------------------------------|
G|----------------------------------------------------------------------------------------------------|
D|-0--0-0-0--0--0-0-0--0--0-0--0--0-0-0--0--0-0-0--0--0-0---------------------------------------------|
A|-0--0-0-0--0--0-0-0--0--0-0--0--0-0-0--0--0-0-0--0--0-0---------------------------------------------|
E|-0--0-0-0--0--0-0-0--0--0-0--0--0-0-0--0--0-0-0--0--0-0---------------------------------------------|
                                                           
e|----------------------------------------------------------------------------------------------------|
B|----------------------------------------------------------------------------------------------------|
G|----------------------------------------------------------------------------------------------------|
D|-8--8-8-8--8--8-8-8--8--8-8--8--8-8-8--8--8-8-8--8--8-8---------------------------------------------|
A|-8--8-8-8--8--8-8-8--8--8-8--8--8-8-8--8--8-8-8--8--8-8---------------------------------------------|
E|-8--8-8-8--8--8-8-8--8--8-8--8--8-8-8--8--8-8-8--8--8-8---------------------------------------------|

e|----------------------------------------------------------------------------------------------------|
B|----------------------------------------------------------------------------------------------------|
G|----------------------------------------------------------------------------------------------------|
D|-5--5-5-5--5--5-5-5--5--5-5--5--5-5-5--5--5-5-5--5--5-5---------------------------------------------|
A|-5--5-5-5--5--5-5-5--5--5-5--5--5-5-5--5--5-5-5--5--5-5---------------------------------------------|
E|-5--5-5-5--5--5-5-5--5--5-5--5--5-5-5--5--5-5-5--5--5-5---------------------------------------------|
   
e|----------------------------------------------------------------------------------------------------|
B|--------------------------------------------------------------------------------- ------ -----------|
G|--------------------------------------------------------------------------------- Repeat -----------|
D|-8--8-8-8--8--8-8-8--8--8-8--8--8-8-8--8--8-8-8---0-0-0-0--0-0-0-0---------------   1x   -----------|
A|-8--8-8-8--8--8-8-8--8--8-8--8--8-8-8--8--8-8-8---0-0-0-0--0-0-0-0--------------- ------ -----------|
E|-8--8-8-8--8--8-8-8--8--8-8--8--8-8-8--8--8-8-8---0-0-0-0--0-0-0-0----------------------------------|
                                                    * * * *  * * * *

                                                ~Chorus~
                                          (Guitar 2) *LACHLAN*

e|----------------------------------------------------------------------------------------------------|
B|--------------------------------------------------------------------------------- ------ -----------|
G|-14--14-14-14---7--7-7-7-7-7-7-7-7--9-9-9-9-9-9-9-9--10-10-10-10-10-10-10-10----- Repeat -----------|
D|---------------------------------------------------------------------------------   3x   -----------|
A|-12--12-12-12---5--5-5-5-5-5-5-5-5--7-7-7-7-7-7-7-7--8--8--8--8--8--8--8--8------ ------ -----------|
E|----------------------------------------------------------------------------------------------------|

e|----------------------------------------------------------------------------------------------------|
B|----------------------------------------------------------------------------------------------------|
G|-10-10-10-10-10-10-10-10--12-12-12-12-12-12-12-12---14-14-14-14-14-14-14-14-/15-\14-----------------|
D|----------------------------------------------------------------------------------------------------|
A|-8--8--8--8--8--8--8--8---10-10-10-10-10-10-10-10---12-12-12-12-12-12-12-12-/13-\12-----------------|

e|----------------------------------------------------------------------------------------------------|
B|--------------------------------------------------------------------------------- ------ -----------|
G|-14--14-14-14---7--7-7-7-7-7-7-7-7--9-9-9-9-9-9-9-9--10-10-10-10-10-10-10-10----- Repeat -----------|
D|---------------------------------------------------------------------------------   3x   -----------|
A|-12--12-12-12---5--5-5-5-5-5-5-5-5--7-7-7-7-7-7-7-7--8--8--8--8--8--8--8--8------ ------ -----------|
E|----------------------------------------------------------------------------------------------------|

e|----------------------------------------------------------------------------------------------------|
B|----------------------------------------------------------------------------------------------------|
G|-10-10-10-10-10-10-10-10--12-12-12-12-12-12-12-12---14-14-14-14-14-14-14-14-/15-\14-----------------|
D|----------------------------------------------------------------------------------------------------|
A|-8--8--8--8--8--8--8--8---10-10-10-10-10-10-10-10---12-12-12-12-12-12-12-12-/13-\12-----------------|

 
                                    ~Bemdy bit just before 2nd verse~
                                           (Guitar 2)*LACHLAN*

e|----------------------------------------------------------------------------------------------------|
B|----------------------------------------------------------------------------------------------------|
G|-7-7-7-7-7-7-7-7-7-7-7-7-7-7-7-7--(slowly bend up)--------------------------------------------------|
D|----------------------------------------------------------------------------------------------------|
A|----------------------------------------------------------------------------------------------------|
E|----------------------------------------------------------------------------------------------------|
   * * * * * * * *

                                                 ~Verse 2~
                                              (Both Guitars)

e|----------------------------------------------------------------------------------------------------|
B|----------------------------------------------------------------------------------------------------|
G|----------------------------------------------------------------------------------------------------|
D|-0--0-0-0--0--0-0-0--0--0-0--0--0-0-0--0--0-0-0--0--0-0---------------------------------------------|
A|-0--0-0-0--0--0-0-0--0--0-0--0--0-0-0--0--0-0-0--0--0-0---------------------------------------------|
E|-0--0-0-0--0--0-0-0--0--0-0--0--0-0-0--0--0-0-0--0--0-0---------------------------------------------|
                                                           
e|----------------------------------------------------------------------------------------------------|
B|----------------------------------------------------------------------------------------------------|
G|----------------------------------------------------------------------------------------------------|
D|-8--8-8-8--8--8-8-8--8--8-8--8--8-8-8--8--8-8-8--8--8-8---------------------------------------------|
A|-8--8-8-8--8--8-8-8--8--8-8--8--8-8-8--8--8-8-8--8--8-8---------------------------------------------|
E|-8--8-8-8--8--8-8-8--8--8-8--8--8-8-8--8--8-8-8--8--8-8---------------------------------------------|

e|----------------------------------------------------------------------------------------------------|
B|----------------------------------------------------------------------------------------------------|
G|----------------------------------------------------------------------------------------------------|
D|-5--5-5-5--5--5-5-5--5--5-5--5--5-5-5--5--5-5-5--5--5-5---------------------------------------------|
A|-5--5-5-5--5--5-5-5--5--5-5--5--5-5-5--5--5-5-5--5--5-5---------------------------------------------|
E|-5--5-5-5--5--5-5-5--5--5-5--5--5-5-5--5--5-5-5--5--5-5---------------------------------------------|
   
e|----------------------------------------------------------------------------------------------------|
B|----------------------------------------------------------------------------------------------------|
G|----------------------------------------------------------------------------------------------------|
D|-8--8-8-8--8--8-8-8--8--8-8--8--8-8-8--8--8-8-8--8--8-8----0-0-0-0--0-0-0-0-------------------------|
A|-8--8-8-8--8--8-8-8--8--8-8--8--8-8-8--8--8-8-8--8--8-8----0-0-0-0--0-0-0-0-------------------------|
E|-8--8-8-8--8--8-8-8--8--8-8--8--8-8-8--8--8-8-8--8--8-8----0-0-0-0--0-0-0-0-------------------------|
                                                             * * * *  * * * *
 
                                     ~Bridge (djent djent djent)~
                                           (Both guitars)

e|----------------------------------------------------------------------------------------------------|
B|----------------------------------------------------------------------------------------------------|
G|----------------------------------------------------------------------------------------------------|
D|----------------------------------------------------------------------------------------------------|
A|---------------------------------------8-7-5--------------------------------------------------------|
E|-0--0-0--0---0--0-0-0---0--0-0--0--0---------7-/8--8--8-8--8---8--8-8-8---8--8-8--8--8--h10---------|
  
e|----------------------------------------------------------------------------------------------------|
B|----------------------------------------------------------------------------------------------------|
G|----------------------------------------------------------------------------------------------------|
D|----------------------------------------------------------------------------------------------------|
A|---------------------------------------8-7-5--------------------------------------------------------|
E|-0--0-0--0---0--0-0-0---0--0-0--0--0---------7-/8--8--8-8--8---8--8-8-8---8--8-8--8--8--------------|


                                              ~Chorus~
                                         (Guitar 1) *JORDAN*

e|----------------------------------------------------------------------------------------------------|
B|----------------------------------------------------------------------------------------------------|
G|----------------------------------------------------------------------------------------------------|
D|-0--0-0-0--0--0-0-0--0--0-0--0--0-0-0--0--0-0-0--0--0-0---------------------------------------------|
A|-0--0-0-0--0--0-0-0--0--0-0--0--0-0-0--0--0-0-0--0--0-0---------------------------------------------|
E|-0--0-0-0--0--0-0-0--0--0-0--0--0-0-0--0--0-0-0--0--0-0---------------------------------------------|
                                                           
e|----------------------------------------------------------------------------------------------------|
B|----------------------------------------------------------------------------------------------------|
G|----------------------------------------------------------------------------------------------------|
D|-8--8-8-8--8--8-8-8--8--8-8--8--8-8-8--8--8-8-8--8--8-8---------------------------------------------|
A|-8--8-8-8--8--8-8-8--8--8-8--8--8-8-8--8--8-8-8--8--8-8---------------------------------------------|
E|-8--8-8-8--8--8-8-8--8--8-8--8--8-8-8--8--8-8-8--8--8-8---------------------------------------------|

e|----------------------------------------------------------------------------------------------------|
B|----------------------------------------------------------------------------------------------------|
G|----------------------------------------------------------------------------------------------------|
D|-5--5-5-5--5--5-5-5--5--5-5--5--5-5-5--5--5-5-5--5--5-5---------------------------------------------|
A|-5--5-5-5--5--5-5-5--5--5-5--5--5-5-5--5--5-5-5--5--5-5---------------------------------------------|
E|-5--5-5-5--5--5-5-5--5--5-5--5--5-5-5--5--5-5-5--5--5-5---------------------------------------------|
   
e|----------------------------------------------------------------------------------------------------|
B|--------------------------------------------------------------------------------- ------ -----------|
G|--------------------------------------------------------------------------------- Repeat -----------|
D|-8--8-8-8--8--8-8-8--8--8-8--8--8-8-8--8--8-8-8---0-0-0-0--0-0-0-0---------------   1x   -----------|
A|-8--8-8-8--8--8-8-8--8--8-8--8--8-8-8--8--8-8-8---0-0-0-0--0-0-0-0--------------- ------ -----------|
E|-8--8-8-8--8--8-8-8--8--8-8--8--8-8-8--8--8-8-8---0-0-0-0--0-0-0-0----------------------------------|
                                                    * * * *  * * * *

                                                ~Chorus~
                                          (Guitar 2) *LACHLAN*

e|----------------------------------------------------------------------------------------------------|
B|--------------------------------------------------------------------------------- ------ -----------|
G|-14--14-14-14---7--7-7-7-7-7-7-7-7--9-9-9-9-9-9-9-9--10-10-10-10-10-10-10-10----- Repeat -----------|
D|---------------------------------------------------------------------------------   3x   -----------|
A|-12--12-12-12---5--5-5-5-5-5-5-5-5--7-7-7-7-7-7-7-7--8--8--8--8--8--8--8--8------ ------ -----------|
E|----------------------------------------------------------------------------------------------------|

e|----------------------------------------------------------------------------------------------------|
B|----------------------------------------------------------------------------------------------------|
G|-10-10-10-10-10-10-10-10--12-12-12-12-12-12-12-12---14-14-14-14-14-14-14-14-/15-\14-----------------|
D|----------------------------------------------------------------------------------------------------|
A|-8--8--8--8--8--8--8--8---10-10-10-10-10-10-10-10---12-12-12-12-12-12-12-12-/13-\12-----------------|

e|----------------------------------------------------------------------------------------------------|
B|--------------------------------------------------------------------------------- ------ -----------|
G|-14--14-14-14---7--7-7-7-7-7-7-7-7--9-9-9-9-9-9-9-9--10-10-10-10-10-10-10-10----- Repeat -----------|
D|---------------------------------------------------------------------------------   3x   -----------|
A|-12--12-12-12---5--5-5-5-5-5-5-5-5--7-7-7-7-7-7-7-7--8--8--8--8--8--8--8--8------ ------ -----------|
E|----------------------------------------------------------------------------------------------------|

e|----------------------------------------------------------------------------------------------------|
B|----------------------------------------------------------------------------------------------------|
G|-10-10-10-10-10-10-10-10--12-12-12-12-12-12-12-12---14-14-14-14-14-14-14-14-/15-\14-----------------|
D|----------------------------------------------------------------------------------------------------|
A|-8--8--8--8--8--8--8--8---10-10-10-10-10-10-10-10---12-12-12-12-12-12-12-12-/13-\12-----------------|


                                           ~Before Breakdown~                              
                                          (Guitar 1) *JORDAN*

e|----------------------------------------------------------------------------------------------------|
B|----------------------------------------------------------------------------------------------------|
G|----------------------------------------------------------------------------------------------------|
D|------------------------------------------------------------------------------3-3--3-3--------------|
A|------------------------------------------------------------------------------3-3--3-3--------------|
E|-0---8--0---3--0--3---0---8--0---10--10--12---0---8--0---3--0--3---0---8--0---3-3--3-3--------------|
                                                                                * *  * *
                                           
                                           ~Break-It-D0wn~
                                           (Both Guitars)

e|----------------------------------------------------------------------------------------------------|
B|----------------------------------------------------------------------------------------------------|
G|----------------------------------------------------------------------------------------------------|
D|-0-0-0-8--0--1-0-1-0---0-0-0-8--0--1-0-10-12---0-0-0-8--0--1-0-1-0---0-0-0-8--0--1-0-7*-------------|
A|-0-0-0-8--0--1-0-1-0---0-0-0-8--0--1-0-10-12---0-0-0-8--0--1-0-1-0---0-0-0-8--0--1-0----------------|
E|-0-0-0-8--0--1-0-1-0---0-0-0-8--0--1-0-10-12---0-0-0-8--0--1-0-1-0---0-0-0-8--0--1-0----------------|


                                        (Guitar 1) *JORDAN*

e|----------------------------------------------------------------------------------------------------|
B|----------------------------------------------------------------------------------------------------|
G|----------------------------------------------------------------------------------------------------|
D|-0-0-0-8--0--1-0-1-0---0-0-0-8--0--1-0-10-12---0-0-0-8--0--1-0-1-0---0-0-0---6-6--------------------|
A|-0-0-0-8--0--1-0-1-0---0-0-0-8--0--1-0-10-12---0-0-0-8--0--1-0-1-0---0-0-0---6-6--------------------|
E|-0-0-0-8--0--1-0-1-0---0-0-0-8--0--1-0-10-12---0-0-0-8--0--1-0-1-0---0-0-0---6-6--------------------|


                                       (Guitar 2) *LACHLAN*

e|-----6------6---6--------6------6---6---------18------18---18--------18------18---18----------------|
B|-10-----10----10-10--10-----10----10-10---20------20-----20--20--20------20-----20--20--------------|
G|----------------------------------------------------------------------------------------------------|
D|----------------------------------------------------------------------------------------------------|
A|----------------------------------------------------------------------------------------------------|
E|----------------------------------------------------------------------------------------------------|


                                       ~Start Quiet Chorus~
                                       (Guitar 2) *LACHLAN*

e|----------------------------------------------------------------------------------------------------|
B|----------------------------------------------------------------------------------------------------|
G|--7--7-7-7-7--7--7-7-7-7--7--7-7--7--7-7-7-7--7--7-7-7-7--7--7-7--10-10101010-10-10101010-10-1010---|
D|--0--0-0-0-0--0--0-0-0-0--0--0-0--0--0-0-0-0--0--0-0-0-0--0--0-0--8--8-8-8-8--8--8-8-8-8--8--8-8----|
A|--0--0-0-0-0--0--0-0-0-0--0--0-0--0--0-0-0-0--0--0-0-0-0--0--0-0--8--8-8-8-8--8--8-8-8-8--8--8-8----|
E|--0--0-0-0-0--0--0-0-0-0--0--0-0--0--0-0-0-0--0--0-0-0-0--0--0-0--8--8-8-8-8--8--8-8-8-8--8--8-8----|


                                 ~Back to normal chorus halfway~
                                        (Guitar 1) *JORDAN*

e|----------------------------------------------------------------------------------------------------|
B|----------------------------------------------------------------------------------------------------|
G|----------------------------------------------------------------------------------------------------|
D|-5--5-5-5--5--5-5-5--5--5-5--5--5-5-5--5--5-5-5--5--5-5---------------------------------------------|
A|-5--5-5-5--5--5-5-5--5--5-5--5--5-5-5--5--5-5-5--5--5-5---------------------------------------------|
E|-5--5-5-5--5--5-5-5--5--5-5--5--5-5-5--5--5-5-5--5--5-5---------------------------------------------|
   
e|----------------------------------------------------------------------------------------------------|
B|----------------------------------------------------------------------------------------------------|
G|----------------------------------------------------------------------------------------------------|
D|-8--8-8-8--8--8-8-8--8--8-8--8--8-8-8--8--8-8-8---0-0-0-0--0-0-0-0----------------------------------|
A|-8--8-8-8--8--8-8-8--8--8-8--8--8-8-8--8--8-8-8---0-0-0-0--0-0-0-0----------------------------------|
E|-8--8-8-8--8--8-8-8--8--8-8--8--8-8-8--8--8-8-8---0-0-0-0--0-0-0-0----------------------------------|

e|----------------------------------------------------------------------------------------------------|
B|----------------------------------------------------------------------------------------------------|
G|----------------------------------------------------------------------------------------------------|
D|-0--0-0-0--0--0-0-0--0--0-0--0--0-0-0--0--0-0-0--0--0-0---------------------------------------------|
A|-0--0-0-0--0--0-0-0--0--0-0--0--0-0-0--0--0-0-0--0--0-0---------------------------------------------|
E|-0--0-0-0--0--0-0-0--0--0-0--0--0-0-0--0--0-0-0--0--0-0---------------------------------------------|
                                                           
e|----------------------------------------------------------------------------------------------------|
B|----------------------------------------------------------------------------------------------------|
G|----------------------------------------------------------------------------------------------------|
D|-8--8-8-8--8--8-8-8--8--8-8--8--8-8-8--8--8-8-8--8--8-8---------------------------------------------|
A|-8--8-8-8--8--8-8-8--8--8-8--8--8-8-8--8--8-8-8--8--8-8---------------------------------------------|
E|-8--8-8-8--8--8-8-8--8--8-8--8--8-8-8--8--8-8-8--8--8-8---------------------------------------------|

e|----------------------------------------------------------------------------------------------------|
B|----------------------------------------------------------------------------------------------------|
G|----------------------------------------------------------------------------------------------------|
D|-5--5-5-5--5--5-5-5--5--5-5--5--5-5-5--5--5-5-5--5--5-5---------------------------------------------|
A|-5--5-5-5--5--5-5-5--5--5-5--5--5-5-5--5--5-5-5--5--5-5---------------------------------------------|
E|-5--5-5-5--5--5-5-5--5--5-5--5--5-5-5--5--5-5-5--5--5-5---------------------------------------------|
   
e|----------------------------------------------------------------------------------------------------|
B|----------------------------------------------------------------------------------------------------|
G|----------------------------------------------------------------------------------------------------|
D|-8--8-8-8--8--8-8-8--8--8-8--8--8-8-8--8--8-8-8--8--8-8--------------0-0-0-0--0-0-0-0---------------|
A|-8--8-8-8--8--8-8-8--8--8-8--8--8-8-8--8--8-8-8--8--8-8--------------0-0-0-0--0-0-0-0---------------|
E|-8--8-8-8--8--8-8-8--8--8-8--8--8-8-8--8--8-8-8--8--8-8--------------0-0-0-0--0-0-0-0---------------|
                                                                       * * * *  * * * * 

                                             ~Chorus~
                                            (guitar 2) *Lachlan*

e|----------------------------------------------------------------------------------------------------|
B|----------------------------------------------------------------------------------------------------|
G|-14--14-14-14---7--7-7-7-7-7-7-7-7--9-9-9-9-9-9-9-9--10-10-10-10-10-10-10-10------------------------|
D|----------------------------------------------------------------------------------------------------|
A|-12--12-12-12---5--5-5-5-5-5-5-5-5--7-7-7-7-7-7-7-7--8--8--8--8--8--8--8--8-------------------------|
E|----------------------------------------------------------------------------------------------------|

e|----------------------------------------------------------------------------------------------------|
B|----------------------------------------------------------------------------------------------------|
G|-10-10-10-10-10-10-10-10--12-12-12-12-12-12-12-12---14-14-14-14-14-14-14-14--0-0-0-0--0-0-0-0-------|
D|-----------------------------------------------------------------------------0-0-0-0--0-0-0-0-------|
A|-8--8--8--8--8--8--8--8---10-10-10-10-10-10-10-10---12-12-12-12-12-12-12-12--0-0-0-0--0-0-0-0-------|
                                                                               * * * *  * * * * 
e|----------------------------------------------------------------------------------------------------|
B|--------------------------------------------------------------------------------- ------ -----------|
G|-14--14-14-14---7--7-7-7-7-7-7-7-7--9-9-9-9-9-9-9-9--10-10-10-10-10-10-10-10----- Repeat -----------|
D|---------------------------------------------------------------------------------   3x   -----------|
A|-12--12-12-12---5--5-5-5-5-5-5-5-5--7-7-7-7-7-7-7-7--8--8--8--8--8--8--8--8------ ------ -----------|
E|----------------------------------------------------------------------------------------------------|

e|----------------------------------------------------------------------------------------------------|
B|----------------------------------------------------------------------------------------------------|
G|-10-10-10-10-10-10-10-10--12-12-12-12-12-12-12-12---14-14-14-14-14-14-14-14-/15-\14-----------------|
D|----------------------------------------------------------------------------------------------------|
A|-8--8--8--8--8--8--8--8---10-10-10-10-10-10-10-10---12-12-12-12-12-12-12-12-/13-\12-----------------|




************************************

| /   slide up
| \   slide down
| h   hammer-on
| p   pull-off
| ~   vibrato
| +   harmonic
| *   Palm Mute
| b   Bend
| pb  Pre-bend
| br  Bend release
| pbr Pre-bend release
| brb Bend release bend

************************************
Добавлено: 14.08.2015
Вам также может быть интересно:
Другие материалы по этой песне:
  • Аккорды и текст

Страница создана 14.08.2015
http://primanota.ru/i-prevail/blank-space-chords.htm
Привет, Гость.
Предлагаем пройти революционный курс по гитаре.
Подарок от PrimaNota.Ru, забирай!