PrimaNota.ru - самый крупный в мире бесплатный архив песенных текстов, аккордов, табулатур и нот


I Killed The Prom Queen - Your Shirt Would Look Better With A Columbian Necktie - таба, бас-таба, видео

Регистрация Запомнить меня
Войти через:  Facebook Google Twitter Vk Yandex Mail.ru

I Killed The Prom Queen - Your Shirt Would Look Better With A Columbian Necktie - таба, бас-таба, видео

Печатать
Просмотров: 133
----------------------------------------------------------------------------
          Your Shirt Would Look Better With A Columbian Necktie - 
                          I Killed The Prom Queen
----------------------------------------------------------------------------

Tabbed by:ParkwayDrive121

Email:kerza_54@hotmail.com

Tuning: B F# B E G# C#

intro
|------------------------------------------------------------------------|
|------------------------------------------------------------------------|
|------------------------------------------------------------------------|
|------------------------------------------------------------------------|
|-00--00--0000--0000--00--00--00-----------------------------------------|
|-00--00--0000--0000--00--00--00-----------------------------------------|x6


verse
|------------------------------------------------------------------------|
|------------------------------------------------------------------------|
|------------------------------------------------------------------------|
|---------------------------------7h8p7----------------------------------|
|----8-7-3----8-7-10-----8-7-3---------10-8-7----------------------------|
|-0-0-0-0--0-0-0-0---8-8--8-8--10----------------------------------------|

|------------------------------------------------------------------------|
|------------------------------------------------------------------------|
|------------------------------------------------------------------------|
|------------------------------------------------------------------------|
|----8-7-3----8-7-10---8-8--10-10--12-10-8-0-8-7-3-----------------------|
|-0-0-0-0--0-0-0-0-----8-8--10-10--12-10-8-0-8-7-3-----------------------|

|------------------------------------------------------------------------|
|------------------------------------------------------------------------|
|------------------------------------------------------------------------|
|---------------------------------7h8p7----------------------------------|
|----8-7-3----8-7-10-----8-7-3---------10-8-7----------------------------|
|-0-0-0-0--0-0-0-0---8-8--8-8--10----------------------------------------|

|-------------------------------------------------------------------------|
|-------------------------------------------------------------------------|
|-------------------------------------------------------------------------|
|-------------------------------------------------------------------------|
|----8-7-3----8-7-10-8-8--10-10--12-10-8-0-8-0-8-10-10-10-10-1012-12-12-12|
|-0-0-0-0--0-0-0-0---8-8--10-10--12-10-8-0-8-0-8-10-10-10-10-1012-12-12-12|

|------------------------------------------------------------------------|
|------------------------------------------------------------------------|
|------------------------------------------------------------------------|
|------------------------------------------------------------------------|
|-8-8--10-10--12-10-8-0-8-0-8-10-10-10-10-10-----------------------------|
|-8-8--10-10--12-10-8-0-8-0-8-10-10-10-10-10-----------------------------|


chorus (strum it however you like)
|------------------------------------------------------------------------|
|------------------------------------------------------------------------|
|------------------------------------------------------------------------|
|------------------------------------------------------------------------|
|-0-0-03-3-38-8-8-8-8-8-10---------0-0-03-3-38-8-810-10-10-10------------|
|-0-0-03-3-38-8-8-8-8-8-10---------0-0-03-3-38-8-810-10-10-10------------|x2


'We are falling..'
|------------------------------------------------------------------------|
|------------------------------------------------------------------------|
|------------------------------------------------------------------------|
|------------------------------------------------------------------------|
|-8~-7~--5-3----/8--8h10-8h10--8~-7~--5-3--------------------------------|
|------------------------------------------------------------------------|


|------------------------------------------------------------------------|
|------------------------------------------------------------------------|
|------------------------------------------------------------------------|
|------------------------------------------------------------------------|
|-0000-00-0-0-0-0000-00-8/10-7/8--0000-00-0-0-0--0000-00-0000-00---------|
|-0000-00-0-0-0-0000-00-----------0000-00-0-0-0--0000-00-0000-00---------|

|------------------------------------------------------------------------|
|------------------------------------------------------------------------|
|------------------------------------------------------------------------|
|------------------------------------------------------------------------|
|-0000-00-0-0-0-0000-00-8/10-7/8--8--7-3---------------------------------|
|-0000-00-0-0-0-0000-00-----------8--7-3---------------------------------|


verse
|------------------------------------------------------------------------|
|------------------------------------------------------------------------|
|------------------------------------------------------------------------|
|---------------------------------7h8p7----------------------------------|
|----8-7-3----8-7-10-----8-7-3---------10-8-7----------------------------|
|-0-0-0-0--0-0-0-0---8-8--8-8--10----------------------------------------|

|------------------------------------------------------------------------|
|------------------------------------------------------------------------|
|------------------------------------------------------------------------|
|------------------------------------------------------------------------|
|----8-7-3----8-7-10---8-8--10-10--12-10-8-0-8-7-3-----------------------|
|-0-0-0-0--0-0-0-0-----8-8--10-10--12-10-8-0-8-7-3-----------------------|

|------------------------------------------------------------------------|
|------------------------------------------------------------------------|
|------------------------------------------------------------------------|
|---------------------------------7h8p7----------------------------------|
|----8-7-3----8-7-10-----8-7-3---------10-8-7----------------------------|
|-0-0-0-0--0-0-0-0---8-8--8-8--10----------------------------------------|

|-------------------------------------------------------------------------|
|-------------------------------------------------------------------------|
|-------------------------------------------------------------------------|
|-------------------------------------------------------------------------|
|----8-7-3----8-7-10-8-8--10-10--12-10-8-0-8-0-8-10-10-10-10-10-----------|
|-0-0-0-0--0-0-0-0---8-8--10-10--12-10-8-0-8-0-8-10-10-10-10-10-----------|


chorus
|------------------------------------------------------------------------|
|------------------------------------------------------------------------|
|------------------------------------------------------------------------|
|------------------------------------------------------------------------|
|-0-0-03-3-38-8-8-8-8-8-10---------0-0-03-3-38-8-810-10-10-10------------|
|-0-0-03-3-38-8-8-8-8-8-10---------0-0-03-3-38-8-810-10-10-10------------|x2

no solo

outro
|------------------------------------------------------------------------|
|------------------------------------------------------------------------|
|------------------------------------------------------------------------|
|------------------------------------------------------------------------|
|-0-0-0--0-0000--0000--0--0000--0000-------------------------------------|
|-0-0-0--0-0000--0000--0--0000--0000-------------------------------------|
Добавлено: 18.04.2012
Другие материалы по этой песне:

Страница создана 13.03.2012
http://primanota.ru/i-killed-the-prom-queen/your-shirt-would-look-better-with-a-columbian-necktie-chords.htm
Привет, Гость.
Предлагаем пройти революционный курс по гитаре.
Подарок от PrimaNota.Ru, забирай!