PrimaNota.ru - самый крупный в мире бесплатный архив песенных текстов, аккордов, табулатур и нот


I Killed The Prom Queen - When Goodbye Means Forever - текст песни, таба, видео

Регистрация Запомнить меня
Войти через:  Facebook Google Twitter Vk Yandex Mail.ru

I Killed The Prom Queen - When Goodbye Means Forever - текст песни, таба, видео

Печатать
Просмотров: 115
When goodbye means forever - i killed the prom queen
Drop C
Im new to doing this by ear,and its only one guitar but i think its pretty close.

                         0:00-0:34
D-------------------------------------------------------------------|
A-------------------------------------------------------------------|
F-------------------------------------------------------------------|
C--3p2-5-3-2--------------------------------------------------------|
G-------------55555555-88888888-11111111-33333333-55555555-88888888-|
C-------------------------------------------------------------------|

D-------------------------------------------------------------------|
A-------------------------------------------------------------------|
F-------------------------------------------------------------------|
C-------------------------------------------------------------------| x3
G--12121212-15151515-13131313-12121212-8888-12121212-10101010-------|
C-------------------------------------------------------------------|


                         0:34-1:00
D-------------------------------------------------------------------|
A-------------------------------------------------------------------|
F-------------------------------------------------------------------|
C--3p2-0-2-5-3-2-3--------------------------------------------------| x20
G-------------------------------------------------------------------|
C-------------------------------------------------------------------|

                         1:00-1:23
D-------------------------------------------------------------------|
A-------------------------------------------------------------------|
F-------------------------------------------------------------------|
C---2h3p2---2h3p2--------------------2h3p2---2h3p2-------------111--| x2
G--0------0-------333-555-777-888--0-------0-------333-555-777-111--|
C-------------------------------------------------------------------|

                        1:23-1:47
D-------------------------------------------------------------------|
A-------------------------------------------------------------------|
F-------------------------------------------------------------------|
C--3p2-0-2-5-3-2-3--------------------------------------------------| x20
G-------------------------------------------------------------------|
C-------------------------------------------------------------------|

                          1:47-2:22
D-------------------------------------------------------------------|
A-------------------------------------------------------------------|
F-------------------------------------------------------------------|
C--0---1111-0--1111-0-00-00-3-2-0----00-00-00-1111-0-00-00-3-2-0----|
G--0---1111-0--1111-0-00-00------3h5-00-00-00-1111-0-00-00------3h5-|
C--0---1111-0--1111-0-00-00----------00-00-00-1111-0-00-00----------|

    2:22-2:33                            2:33-2:57
D-------------------------|----------------------------------------------|
A-------------------------|----------------------------------------------|
F-------------------------|----------------------------------------------|
C-------------------------|----------------------------------------------|
G--00-00-00---------------|12-8h10p8-12-8-7h8p7-5-10-8p7-5-7-5-5-5p3-3-1-|
C--00-00-00--5-5s8-8s1-1s3|----------------------------------------------|

D-----------------------------------------------------------------------|
A-----------------------------------------------------------------------|
F-----------------------------------------------------------------------|
C--------8p7-------8p7--------10p8--------10p8--------------------------| x2
G--8-8-8-----8-8-8-----8-10-8------8-10-8-------------------------------|
C-----------------------------------------------------------------------|

                         2:57-3:19
D-----------------------------------------------------------------------|
A-----------------------------------------------------------------------|
F-----------------------------------------------------------------------|
C--8-10-12-10-8-10-12-10-8-10-12-10-8--8-10-12--3-0-3-555--3-0-3-555----|
G-----------------------------------------------3-0-3------3-0-3--------|
C-----------------------------------------------3-0-3------3-0-3--------|


D------------------------|
A------------------------|
F------------------------|
C--5-0-5-777--5-0-5-777--| x2
G--5-0-5------5-0-5------|
C--5-0-5------5-0-5------|

        3:19-3:57
D---------------------------------------|
A---------------------------------------|
F---------------------------------------|
C--000-000-111-111-000-000-111-111------|
G--000-000-111-111-000-000-111-111------|
C--000-000-111-111-000-000-111-111------|

Listen to the song for timing,and there's no 11's their 1's.
any corrections email me at xThisWarIsOursx@hotmail.com
Добавлено: 18.03.2012
Другие материалы по этой песне:

Страница создана 18.03.2012
http://primanota.ru/i-killed-the-prom-queen/when-goodbye-means-forever-chords.htm
Привет, Гость.
Предлагаем пройти революционный курс по гитаре.
Подарок от PrimaNota.Ru, забирай!