PrimaNota.ru - самый крупный в мире бесплатный архив песенных текстов, аккордов, табулатур и нот


I Killed The Prom Queen - The Paint Brush Killer - текст песни, таба, видео

Регистрация Запомнить меня
Войти через:  Facebook Google Twitter Vk Yandex Mail.ru

I Killed The Prom Queen - The Paint Brush Killer - текст песни, таба, видео

Печатать
Просмотров: 166
I Killed The Prom Queen - The Paint Brush Killer

*Note: When 1010 is shown it is several 10s together, not 1s and 0s.
Some parts might not be right, but the main riff is definitely right.

Intro/”The torment of your lies..”
e-------------------|-------------|
B-------------------|-------------|
G-------------------|-------------|
D-----55-------55---|-1010101010--| x4
A---3---3----3---3--|-1010101010--|
D-66-6---6-66-6---6-|-1010101010--|
                      .........

            “To kill..”
e--------------------------------------------------|
B--------------------------------------------------|
G--------------------------------------------------|
D-66-66-66-66-68-810-1010-1010-1010-1010-10101010--|
A-66-66-66-66-68-810-1010-1010-1010-1010-10101010--|
D-66-66-66-66-68-810-1010-1010-1010-1010-10101010--|

------------------------------------|
------------------------------------|
------------------------------------|
-88-88-88-88-8888-66-66-66-66-6666--| x2
-88-88-88-88-8888-66-66-66-66-6666--|
-88-88-88-88-8888-66-66-66-66-6666--|

“Time is at an end..” x2
e----------------------------------------------------------------------------|
B----------------------------------------------------------------------------|
G----------------------------------------------------------------------------|
D-----55-------55--------55-------55--------55-------55--------55-------55---|
A---3---3----3---3-----3---3----3---3-----3---3----3---3-----3---3----3---3--|
D-66-6---6-66-6---6--55-5---5-55-5---5--33-3---3-33-3---3--11-1---1-11-1---1-|

“Strokes of a brush fade away..”
e------------------------------------------|
B------------------------------------------|
G------------------------------------------|
D-666666666-55555555-33333333-11111111111--| x2
A-666666666-55555555-33333333-11111111111--|
D-666666666-55555555-33333333-11111111111--|

“To kill..” part x2

“Hearts broken..”
e---------------|
B---------------|
G---------------|
D-10~-12~-8~-6~-|
A-10~-12~-8~-6~-|
D-10~-12~-8~-6~-|

“The blood of eternity..”
e------------------------------------------------------------|
B------------------------------------------------------------|
G------------------------------------------------------------|
D-101010101010101010-121212121212121212-8888888888-666666666-|
A-101010101010101010-121212121212121212-8888888888-666666666-|
D-101010101010101010-121212121212121212-8888888888-666666666-|
  .................. .................. .......... .........

“Strokes of a brush fade away..” part x1, then

Outro
e----------------|
B----------------|
G----------------|
D-6~—1~--8~--10~-|
A-6~—1~--8~--10~-|
D-6~—1~--8~--10~-|
Добавлено: 11.07.2012
Другие материалы по этой песне:
  • Аккорды и текст

Страница создана 16.06.2012
http://primanota.ru/i-killed-the-prom-queen/the-paint-brush-killer-chords.htm
Привет, Гость.
Предлагаем пройти революционный курс по гитаре.
Подарок от PrimaNota.Ru, забирай!