PrimaNota.ru - самый крупный в мире бесплатный архив песенных текстов, аккордов, табулатур и нот


I Killed The Prom Queen - Sleepless Nights And City Lights - таба, видео

Регистрация Запомнить меня
Войти через:  Facebook Google Twitter Vk Yandex Mail.ru

I Killed The Prom Queen - Sleepless Nights And City Lights - таба, видео

Печатать
Просмотров: 159
-----I KILLED THE PROM QUEEN-----
-----SLEEPLESS NIGHTS AND CITY LIGHTS-----

Great song by a great band too bad that they broke up   

E|------------------------------------------------------------|\
B|------------------------------------------------------------| \
G|------------------------------------------------------------|  \
D|-----------------------------------------7"-----------------|   \
A|-5---------5h7---------7h8-------------8----10"-8"-10"------|    \
D|---0-0-0-0-----8-8-8-8-----10-10-10-10----------------------|     \
                                                                     X3
E|------------------------------------------------------------|     /
B|------------------------------------------------------------|    /
G|------------------------------------------------------------|   /
D|-----------------------------------------7"-----------------|  /
A|-5---------5h7---------7h8-------------8--------8"-10"------| /
D|---0-0-0-0-----8-8-8-8-----10-10-10-10----------------------|/

        play this 3 times             on the 3rd end with this
E|----------------------------------|--------------------------|
B|----------------------------------|--------------------------|
G|----------------------------------|--------------------------|
D|----------------------------------|--------------------------| X3
A|-------8---7---5------------------|--------------------------|
D|-0-0-0---0---0---0-0-0-0-0-0-0----|--4"-----7"---------------|

E|------------------------------------------------------------|
B|------------------------------------------------------------|
G|------------------------------------------------------------|
D|-8~-------------0~-------------3~-------------10~-----------|
A|-8~-------------0~-------------3~-------------10~-----------|
D|-8~-------------0~-------------3~-------------10~-----------|

and that is the first little bit of IKTPQ's Sleepless nights and
city lights enjoy it non-powertab/guitar pro users but im too
lazy to do the rest
Добавлено: 06.05.2012
Другие материалы по этой песне:

Страница создана 21.02.2012
http://primanota.ru/i-killed-the-prom-queen/sleepless-nights-and-city-lights-chords.htm
Привет, Гость.
Предлагаем пройти революционный курс по гитаре.
Подарок от PrimaNota.Ru, забирай!