PrimaNota.ru - самый крупный в мире бесплатный архив песенных текстов, аккордов, табулатур и нот


I Killed The Prom Queen - Like Nails To A Casket - таба, видео

Регистрация Запомнить меня
Войти через:  Facebook Google Twitter Vk Yandex Mail.ru

I Killed The Prom Queen - Like Nails To A Casket - таба, видео

Печатать
Просмотров: 147
                          Like Nails To A Casket
                         I Killed The Prom Queen
                          TABBED BY SAM FOGARTY

THIS IS ALL I COULD FIGURE OUT AT THE MOMENT IT MY FIRST TAB HOPE YOU LIKE IT ITS A BIT 
THO ENJOY

C#|------------------------------------------------------------------------|
G#|------------------------------------------------------------------------|
E |-3~--5~-----------------------------------------------------------------|
B |-X~--X~----------------------------------------------------8-7-8---7-5-7|
F#|-1~--3~---87----3h5--7p5---8-7-8---7-5-7--87----3h5--7p5----------------|
B |------------0000---00----55-5-5--33-3-3-----0000---00----55-5-5--88-8-8-|
               ....   ..    .. . .  .. . .     ....   ..    .. . .  .. . .
C#|------------------------------------------------------------------------|
G#|------------------------------------------------------------------------|
E |----------------------------------------------------------------875-----|
B |--------------------------------------------------8-7-8---7-5-7----875--|
F#|-87----3h5--7p5---8-7-8---7-5-7--87----3h5--7p5-----------------------87|
B |---0000---00----55-5-5--33-3-3-----0000---00----55-5-5--88-8-8----------|
      ....   ..    .. . .  .. . .     ....   ..    .. . .  .. . .  ........

    v NOT QUIET SURE ABOUT THIS SECTION v
C#|-----------------------------------------------------------------|
G#|-----------------------------------------------------------------|
E |---------10101010101010109999999977779999555555551212121210101010|
B |-----------------------------------------------------------------|CONT
F#|-55555555--------------------------------------------------------|
B |-----------------------------------------------------------------|

C#|-------------------------|
G#|-------------------------|
E |999999997777999955555555-|
B |-------------------------|
F#|-------------------------|
B |-------------------------|

C#|------------------------------------------------------------------------|
G#|------------------------------------------------------------------------|
E |------------------------------------------------------------------------|
B |-----------------------------------------------------8-7-8---7-5-7------|
F#|-87-------3h5--7p5---8-7-8---7-5-7--87----3h5--7p5----------------------|
B |---0000-00---00----55-5-5--33-3-3-----0000---00----55-5-5--88-8-8-------|
      .... ..   ..    .. . .  .. . .     ....   ..    .. . .  .. . .

C#|-----------------------------------------------------------------|
G#|-----------------------------------------------------------------|
E |-----------------------------------------------------------------|
B |-7~--5~--2~--3~------------------7~--5~--8~---7~---8-7-8---7-5-7-|
F#|-8~--7~--3~--5~---8-7-8---7-5-7--8~--7~--10~--8~-----------------|
B |----------------55-5-5--33-3-3-3-----------------55-5-5--88-8-8--|
                   .. . .  .. . . .                 .. . .  .. . .


ANYONE WANNA FINNISH IT???? MOST OF IT IS A BREAKDOWN SO YOU CAN PROBS FIGURE IT OUT.
R.I.P IKTPQ
Добавлено: 16.04.2012
Другие материалы по этой песне:

Страница создана 16.04.2012
http://primanota.ru/i-killed-the-prom-queen/like-nails-to-a-casket-chords.htm
Привет, Гость.
Предлагаем пройти революционный курс по гитаре.
Подарок от PrimaNota.Ru, забирай!