PrimaNota.ru - самый крупный в мире бесплатный архив песенных текстов, аккордов, табулатур и нот


I Killed The Prom Queen - Forgiveness Is Murder - текст песни, таба, бас-таба, видео

Регистрация Запомнить меня
Войти через:  Facebook Google Twitter Vk Yandex Mail.ru

I Killed The Prom Queen - Forgiveness Is Murder - текст песни, таба, бас-таба, видео

Печатать
Просмотров: 215
FORGIVENESS IS MURDER
I KILLED THE PROM QUEEN
WHEN GOODBYE MEANS FOREVER

INTRO
Guitar 1
E|-----------------------------------------------------------------------|
B|-----------------------------------------------------------------------|
G|-----------------------------------------------------------------------|
D|-----------------------------------------------------------------------|
A|00000000000000002223335550000000000000000222333555999999999999999999797|
D|00000000000000002223335550000000000000000222333555999999999999999999797|
			                                                 x2 
E|-----------------------------------------------------------------------|
B|-----------------------------------------------------------------------|
G|-----------------------------------------------------------------------|
D|-----------------------------------------------------------------------|
A|555555555555777999101010121212-----------------------------------------|
D|555555555555777999101010121212-----------------------------------------|

Guitar 2 come in on second time played
E|-----------------------------------------------------------------------|
B|-----------------------------------------------------------------------|
G|-----------------------------------------------------------------------|
D|12109797575353-12109797575353-121097975758910-12109797575353-----------|
A|-----------------------------------------------------------------------|
D|-----------------------------------------------------------------------|

Guitar 1
E|-----------------------------------------------------------------------|
B|-----------------------------------------------------------------------|
G|-----------------------------------------------------------------------|x4
D|-----------------------------------------------------------------------|
A|000000-0-000000-0-0-0--000000-0-300300-0-0-0---------------------------|
D|000000-0-000000-0-0-0--000000-0-300300-0-0-0---------------------------|
  ...... . ...... . . .  ...... . ...... . . .

Guitar 2	come in after guitar 1 played through twice
E|-----------------------------------------------------------------------|
B|-----------------------------------------------------------------------|
G|-----------------------------------------------------------------------|
D|-----------------------------------------------------------------------|
A|-----------------------------------------------------------------------|
D|640-640-860-860-640-640-860-860-640-640-860-860-640-640-860-860-640-640|
  ... ... ... ... ... ... ... ... ... ... ... ... ... ... ... ... ... ...

“childhood reminders”
ACOUSTIC
E|-----------------------------------------------------------------------|
B|------8---------8---------8---------8----------------------------------|x4
G|---8---8-----8---8-----8---8-----8---8---------------------------------|
D|-9--9------9--9------9--9------9--9------------------------------------|
A|7-7--7----7-7--7----7-7--7----7-7--7-----------------------------------|
D|-----------------------------------------------------------------------|
  
“forgiveness is denied”
ELECTRIC
E|-----------------------------------------------------------------------|
B|------8---------8---------8---------8----------------------------------|x2
G|---8---8-----8---8-----8---8-----8---8---------------------------------|
D|-9--9------9--9------9--9------9--9------------------------------------|
A|7-7--7----7-7--7----7-7--7----7-7--7-----------------------------------|
D|-----------------------------------------------------------------------|






“Freezing me to death”
E|-----------------------------------------------------------------------|
B|------8-------8-------8-------8--------8-------8-------8-------8-------|x2
G|------8-------8-------8-------8--------8-------8-------8-------8-------|
D|999999--999999--999999--999999---000000--000000--000000--000000--------|
A|777777--777777--777777--777777---777777--777777--777777--777777--------|
D|-----------------------------------------------------------------------|
  ......  ......  ......  ......   ......  ......  ......  ......

Guitar 1
E|-----------------------------------------------------------------------|
B|-----------------------------------------------------------------------|x4
G|-----------------------------------------------------------------------|
D|8888-8885555-5557777-777-8-9-10-12-------------------------------------|
A|6666-6663333-3335555-555-6-7-8--10-------------------------------------|
D|-----------------------------------------------------------------------|

Guitar 2
E|-----------------------------------------------------------------------|
B|-----------------------------------------------------------------------|
G|-----------------------------------------------------------------------|
D|8888-88/1212121212-1010/13-7777-777-8-9-10-12--------------------------|
A|6666-66/1010101010-8-8-/11-5555-555-6-7-8--10--------------------------|
D|-----------------------------------------------------------------------|

E|-----------------------------------------------------------------------|
B|-----------------------------------------------------------------------|
G|-----------------------------------------------------------------------|
D|8888-12121212\101010--13131313\121212-121212-8-9-10-12-----------------|
A|6666-10101010\8-8-8---11111111\101010-101010-6-7-8--10-----------------|
D|-----------------------------------------------------------------------|

E|-----------------------------------------------------------------------|
B|-----------------------------------------------------------------------|
G|-----------------------------------------------------------------------|
D|8888-888-1212\1010-----------------------------------------------------|
A|6666-666-1010\8-8------------------------------------------------------|
D|-----------------------------------------------------------------------|

Guitar 1 
E|-----------------------------------------------------------------------|
B|-----------------------------------------------------------------------|x3
G|5h6p5h6p5h6p5h6p5h6p5h6p5h6p5h6----------------------------------------|
D|-----------------------------------------------------------------------|
A|-----------------------------------------------------------------------|
D|-----------------------------------------------------------------------|

Guitar 2
E|-----------------------------------------------------------------------|
B|-----------------------------------------------------------------------|
G|----------8-8-------------8-8-------------8-8--------------------------|
D|----------8-8-------------8-8-------------8-8--------------------------|
A|00-0000000----00-00000000-----00-00000000-----00-000000000000000000----|
D|00-0000000----00-00000000-----00-00000000-----00-000000000000000000----|
  .. .......    .. ........     .. ........     .. ..................

Both Guitars
E|-----------------------------------------------------------------------|
B|-----------------------------------------------------------------------|
G|-----------------------------------------------------------------------|x2
D|-----------------------------------------------------------------------|
A|00-0000000-00-0000000-00-0000000-00-0000000----------------------------|
D|00-0000000-00-0000000-00-0000000-00-0000000----------------------------|

E|-----------------------------------------------------------------------|
B|-----------------------------------------------------------------------|
G|----------8-8-------------8-8-------------8-8--------------------------|
D|----------8-8-------------8-8-------------8-8--------------------------|
A|00-0000000----00-00000000-----00-00000000-----00-000000000000000000----|
D|00-0000000----00-00000000-----00-00000000-----00-000000000000000000----|
  .. .......    .. ........     .. ........     .. ..................

Guitar 1
E|-----------------------------------------------------------------------|
B|-----------------------------------------------------------------------|
G|-----------------------------------------------------------------------|
D|-----------------------------------------------------------------------|
A|-----------------------------------------------------------------------|
D|640-640-860-860-640-640-860-860-640-640-860-860-640-640-860-860-640-640|
  ... ... ... ... ... ... ... ... ... ... ... ... ... ... ... ... ... ...

Guitar 2  come in on second time played
E|-----------------------------------------------------------------------|
B|-----------------------------------------------------------------------|
G|-----------------------------------------------------------------------|
D|-----------------------------------------------------------------------|
A|640-640-860-860-640-640-860-860-640-640-860-860-640-640-860-860-640-640|
D|-----------------------------------------------------------------------|
  ... ... ... ... ... ... ... ... ... ... ... ... ... ... ... ... ... ...

Guitar 1
E|-----------------------------------------------------------------------|
B|-----------------------------------------------------------------------|
G|-----------------------------------------------------------------------|
D|-----------------------------------------------------------------------|
A|00000000000000002223335550000000000000000222333555999999999999999999797|
D|00000000000000002223335550000000000000000222333555999999999999999999797|
					                                 x2 
E|-----------------------------------------------------------------------|
B|-----------------------------------------------------------------------|
G|-----------------------------------------------------------------------|
D|-----------------------------------------------------------------------|
A|555555555555777999101010121212-----------------------------------------|
D|555555555555777999101010121212-----------------------------------------|

Guitar 2  come in on second time played
E|-----------------------------------------------------------------------|
B|-----------------------------------------------------------------------|
G|-----------------------------------------------------------------------|
D|12109797575353-12109797575353-121097975758910-12109797575353-----------|
A|-----------------------------------------------------------------------|
D|-----------------------------------------------------------------------|

Both Guitars
E|-----------------------------------------------------------------------|
B|-----------------------------------------------------------------------|
G|-----------------------------------------------------------------------|
D|-----------------------------------------------------------------------|
A|000000-0-000000-0-0-0--000000-0-333300-0-0-0---------------------------|
D|000000-0-000000-0-0-0--000000-0-333300-0-0-0---------------------------|
  ...... . ...... . . .  ...... . ...... . . .

E|-----------------------------------------------------------------------|
B|-----------------------------------------------------------------------|
G|-----------------------------------------------------------------------|
D|-----------------------------------------------------------------------|
A|000000-0-000000-0-0-0--000000-0-300000-0-0-0---------------------------|
D|000000-0-000000-0-0-0--000000-0-300000-0-0-0---------------------------|
  ...... . ...... . . .  ...... . ...... . . .

E|-----------------------------------------------------------------------|
B|-----------------------------------------------------------------------|
G|-----------------------------------------------------------------------|
D|-----------------------------------------------------------------------|
A|000000-0-000000-0-0-0--000000000000000000000000------------------------|
D|000000-0-000000-0-0-0--000000000000000000000000------------------------|
  ...... . ...... . . .  ........................

E|-----------------------------------------------------------------------|
B|-----------------------------------------------------------------------|
G|-----------------------------------------------------------------------|
D|-----------------------------------------------------------------------|
A|000000-0-000000-0-0-0--000000-0-000000-0-0-0---------------------------|
D|000000-0-000000-0-0-0--000000-0-000000-0-0-0---------------------------|
  ...... . ...... . . .  ...... . ...... . . .

E|-----------------------------------------------------------------------|
B|-----------------------------------------------------------------------|
G|-----------------------------------------------------------------------|
D|-----------------------------------------------------------------------|
A|000000-0-000000-0-0-0--000000000000000000000000------------------------|
D|000000-0-000000-0-0-0--000000000000000000000000------------------------|
  ...... . ...... . . .  ........................
E|-----------------------------------------------------------------------|
B|-----------------------------------------------------------------------|
G|-----------------------------------------------------------------------|
D|-----------------------------------------------------------------------|
A|000000-0---------------------------------------------------------------|
D|000000-0---------------------------------------------------------------|
  ...... .

any comments or improvements to roses_on_my_coffin@hotmail.com
Добавлено: 23.07.2012
Другие материалы по этой песне:

Страница создана 20.05.2012
http://primanota.ru/i-killed-the-prom-queen/forgiveness-is-murder-chords.htm
Привет, Гость.
Предлагаем пройти революционный курс по гитаре.
Подарок от PrimaNota.Ru, забирай!