PrimaNota.ru - самый крупный в мире бесплатный архив песенных текстов, аккордов, табулатур и нот


I Killed The Prom Queen - Bright Enough - таба, видео

Регистрация Запомнить меня
Войти через:  Facebook Google Twitter Vk Yandex Mail.ru

I Killed The Prom Queen - Bright Enough - таба, видео

Печатать
Просмотров: 214
Уроки эстрадного вокала в Санкт-Петербурге
                           Bright Enough
         By I Killed The Prom Queen (Beloved Album 2014) Tab by BrettM

-------------------------------------------------------------------------------
                           Tuning: Drop B

*Tempo sounds like 105. Feel free to make improvements,this is just a basic idea. Hope 
it is useful for somebody


Intro (Chorus)          (Play entire intro 3X)
C#|--------------------------------------------------------|
G#|--------------------------------------------------------|
E|---------------------------------------------------------|
B|----0--0--15--0--14--0--0--0---0--15--0--14--0--0--------|
F#|--------------------------------------------------------|
B|---------------------------------------------------------|

Intro cont...
C#|-----------------------------------------------------------------------------------8----10-----|
G#|----------------------------------------------11-10-(10)-------11-10-(10)----11-10---10----10--|
E|--------------------------------------------12---------------12------------12-------------------|  
B|------------15----14----------15----14---12-----------------------------------------------------|
F#|---12---12----12-----12---12----12-------------------------------------------------------------|
B|------------------------------------------------------------------------------------------------|


Verse 1
C#|---------------------------------------------------------------------------------------------------------|
G#|---------------------------------------------------------------------------------------------------------|
E|---9/--10-10-------9/--10-10-------10--10--10--10--10--10--9--9\-7/-14--15-15--------14/--15--15----------|
B|-------------0-0-------------0-0-----------------------------------------------0-0----------------0-0-----|
F#|--7/--8--8--0-0---7/--8--8--0-0---8---8---8---8---8---8---7--7\-5/-12--13-13--0-0---12/--13--13--0-0-----|
B|-------------0-0-------------0-0-----------------------------------------------0-0----------------0-0-----|


C#|------------------------------------------------------------------------------------------------------------|
G#|------------------------------------------------------------------------------------------------------------|
E|---15--15--15--15--15--15--14--14/-10/-12-9/--10-10-------9/--10-10-------10--10--10--10--10--10--9--9/-7\-14|
B|----------------------------------------------------0-0-------------0-0--------------------------------------|
F#|--13--13--13--13--13--13--12--12/-8/--10-7/--8--8--0-0---7/--8--8--0-0---8---8---8---8---8---8---7--7/-5\-12|
B|----------------------------------------------------0-0-------------0-0--------------------------------------|

                                      
C#|----------------------------------------------------------------------------------------------------|
G#|----------------------------------------------------------------------------------------------------|
E|----15--15--------14/--15--15--------15--15--15--15--15--15/-14/-17--17--17--17--19--19--19--19------|
B|------------0-0----------------0-0-------------------------------------------------------------------|
F#|---13--13--0-0---12/--13--13--0-0---13--13--13--13--13--13\-14/-15--15--15--15--17--27--17--17------|
B|------------0-0----------------0-0-------------------------------------------------------------------|

Verse 2A
C#|--------------------------------------------------------------------------------------------------------|
G#|--------------------------------------------------------------------------------------------------------|
E|---------------------------------------------------------------------------------------------------------|
B|---------------------------------------------------------------------------------------------------------|
F#|---------------------------------------------------------585--------------------------------------------|
B|--0--0-000--0-0------0--0-0-0-0-0-----0--0-000--0-0---0------0-8-0-7------0--0-000--0-0-----0--0-0-0-0-0-|

                                                             Verse 2B (starting here)
C#|-------------------------------------------------------------------------------------------|
G#|---------------------------------------------------------------------------13--------------|
E|-------------------------------------------------------------10--------10------10-----------|
B|---------------------------------------------------------0--------14--------------14(Ring)--|
F#|---------------------585--------------7107--------------0----------------------------------|
B|---0--0-000--0-0---0------0-8-0-7---0-------0-10-0-7-0---0----------------------------------|


Verse 2A                      Verse 2B                           Vesre 2A
C#|---------------------------------------------------------------------------------------------------|
G#|--------------------------------------------15-----------------------------------------------------|
E|-------------------------------10--------10------10-------------------------------------------------|
B|----------------------------0--------14--------------14(Ring)---------------------------------------|
F#|---------585---------------0------------------------------------585-------------7107---------------|
B|-------0------0-8-0-7-0-0---0---------------------------------0------0-8-0-7-0-0------0-10-0-7-0----|

Melody
C#|-------------------------------------------------------------------------------|
G#|---------------------------15--------------------------------------------------|
E|------------14------------------------------14----------14-12-10----------------|
B|----14--15------15--14--15------15--14--15------15--14-----------14-12-10-------|
F#|-------------------------------------------------------------------------------|
B|--------------------------------------------------------------------------------|


Intro (Chorus)
C#|-----------------------------------------------------|
G#|-----------------------------------------------------|
E|------------------------------------------------------|
B|----0--0--15--0--14--0--0--0---0--15--0--14--0--0-----|
F#|-----------------------------------------------------|
B|------------------------------------------------------|

Intro cont...
C#|-----------------------------------------------------------------------------------8----10-----|
G#|----------------------------------------------11-10-(10)-------11-10-(10)----11-10---10----10--|
E|--------------------------------------------12---------------12------------12-------------------|  2X
B|------------15----14----------15----14---12-----------------------------------------------------|
F#|---12---12----12-----12---12----12-------------------------------------------------------------|
B|------------------------------------------------------------------------------------------------|

Verse2A
C#|-------------------------------------------------------------------------------------------------------|
G#|-------------------------------------------------------------------------------------------------------|
E|--------------------------------------------------------------------------------------------------------|
B|--------------------------------------------------------------------------------------------------------|
F#|---------------------------------------------------------585-------------------------------------------|
B|--0--0-000--0-0-----0--0-0-0-0-0-----0--0-000--0-0---0------0-8-0-7-----0--0-000--0-0------0--0-0-0-0-0-|

Verse 2A cont...
C#|-------------------------------------------------------------|
G#|-------------------------------------------------------------|
E|--------------------------------------------------------------|
B|--------------------------------------------------------------|
F#|---------------------585--------------7107-------------------|
B|---0--0-000--0-0---0------0-8-0-7---0-------0-10-0-7-0-0------|


Then,
A breakdown Im not sure how to tab it though. Just feel it out. HINT: two palm mutes in the
first half of the lick with fret hand are required.
then back to.... 


Verse 2A                                   Verse 2B
C#|-----------------------------------------------------------------------|
G#|------------------------------------------------------13---------------|
E|-----------------------------------------10--------10------10-----------|
B|--------------------------------------0-------14--------------14(Ring)--|
F#|---585--------------7107-------------0---------------------------------|
B|--------0-8-0-7---0-------0-10-0-7-0--0---------------------------------|


Verse 2A/B/A cont....
C#|--------------------------------------------------------------------------------------------------|
G#|------------------------------------------15------------------------------------------------------|
E|----------------------------10--------10------10---------------------------------------------------|
B|-------------------------0-------14--------------14(Ring)------------------------------------------|
F#|---------585------------0---------------------------------------585-------------7107--------------|
B|-------0------0-8-0-7-0--0------------------------------------0------0-8-0-7-0-0------0-10-0-7-0---|

Melody
C#|-------------------------------------------------------------------------------|
G#|---------------------------15--------------------------------------------------|
E|------------14------------------------------14----------14-12-10----------------|
B|----14--15------15--14--15------15--14--15------15--14-----------14-12-10-------|  3X
F#|-------------------------------------------------------------------------------|
B|--------------------------------------------------------------------------------|


Then some part I cant tell what the fuck is really going on, then the solo...

Solo- Something like this
C#|-------------------------------------------------------|
G#|-------------------------------------------------------|
E|-------10---10--9---9-10-9-----------------12-----------|
B|---12----------------------10--12--7---8----------------|
F#|-------------------------------------------------------|
B|--------------------------------------------------------|


C#|-------10-12-13-15-13-121312-----------------------17-22-20-1718---18-17-15---12-----|
G#|----10-----------------------13-15-----------15-17-----------------------------------|
E|--12---------------------------------------14-----------------------------------------|
B|-------------------------------------12-15--------------------------------------------|
F#|-------------------------------------------------------------------------------------|
B|--------------------------------------------------------------------------------------|


Intro
C#|--------------------------------------------------------|
G#|--------------------------------------------------------|
E|---------------------------------------------------------|
B|----0--0--15--0--14--0--0--0---0--15--0--14--0--0--------|
F#|--------------------------------------------------------|
B|---------------------------------------------------------|


Intro cont...
C#|-----------------------------------------------------------------------------------8----10-----|
G#|----------------------------------------------11-10-(10)-------11-10-(10)----11-10---10----10--|
E|--------------------------------------------12---------------12------------12-------------------|  2X
B|------------15----14----------15----14---12-----------------------------------------------------|
F#|---12---12----12-----12---12----12-------------------------------------------------------------|
B|------------------------------------------------------------------------------------------------|

Verse 1
C#|---------------------------------------------------------------------------------------------------------|
G#|---------------------------------------------------------------------------------------------------------|
E|---9/--10-10-------9/--10-10-------10--10--10--10--10--10--9--9\-7/-14--15-15--------14/--15--15----------|
B|-------------0-0-------------0-0-----------------------------------------------0-0----------------0-0-----|
F#|--7/--8--8--0-0---7/--8--8--0-0---8---8---8---8---8---8---7--7\-5/-12--13-13--0-0---12/--13--13--0-0-----|
B|-------------0-0-------------0-0-----------------------------------------------0-0----------------0-0-----|


C#|------------------------------------------------------------------------------------------------------------|
G#|------------------------------------------------------------------------------------------------------------|
E|---15--15--15--15--15--15--14--14/-10/-12-9/--10-10-------9/--10-10-------10--10--10--10--10--10--9--9/-7\-14|
B|----------------------------------------------------0-0-------------0-0--------------------------------------|
F#|--13--13--13--13--13--13--12--12/-8/--10-7/--8--8--0-0---7/--8--8--0-0---8---8---8---8---8---8---7--7/-5\-12|
B|----------------------------------------------------0-0-------------0-0--------------------------------------|

                                      
C#|----------------------------------------------------------------------------------------------------|
G#|----------------------------------------------------------------------------------------------------|
E|----15--15--------14/--15--15--------15--15--15--15--15--15/-14/-17--17--17--17--19--19--19--19------|
B|------------0-0----------------0-0-------------------------------------------------------------------|
F#|---13--13--0-0---12/--13--13--0-0---13--13--13--13--13--13\-14/-15--15--15--15--17--27--17--17------|
B|------------0-0----------------0-0-------------------------------------------------------------------|

C#|------------------------------------------------------|
G#|------------------------------------------------------|
E|-------------------------------------------------------|
B|---0---------------------------------------------------|
F#|--0---------------------------------------------------|
B|---0--0-0-0-00----0-0-0-0-0-00-------------------------|


************************************

 /   slide up     
 \   slide down

************************************
-------------------------------------------------------------------------------
Добавлено: 01.08.2015
Другие материалы по этой песне:

Страница создана 24.09.2014
http://primanota.ru/i-killed-the-prom-queen/bright-enough-chords.htm
Привет, Гость.
Предлагаем пройти революционный курс по гитаре.
Подарок от PrimaNota.Ru, забирай!