PrimaNota.ru - самый крупный в мире бесплатный архив песенных текстов, аккордов, табулатур и нот


I Can Make A Mess Like Nobodys Business - My Hands Hurt - таба, видео

Регистрация Запомнить меня
Войти через:  Facebook Google Twitter Vk Yandex Mail.ru

I Can Make A Mess Like Nobodys Business - My Hands Hurt - таба, видео

Печатать
Просмотров: 77
This is a wicked song from one of my favourite artists! I originally figured it out
a capo because that's what seemed to work at first, but then when attempting to figure out
little variations I realized he's playing it with a capo at the seventh fret. The extra 
played on those variations are at what would be the seventh and fifth frets of the
E string, and there's no audible sliding, so you can tell he's playing it at a much 
position than open.

I'll include the original, capo-less way I figured the song out for those of you without
capo! It won't sound exactly the same, but you'll get the same general feel from it.

-------------------------------------------------------------------------------
		I Can Make A Mess Like Nobody's Business - My Hands Hurt
-------------------------------------------------------------------------------
Tabbed by: Jamie Bell
Email: jme.bell@hotmail.com

Tuning: Standard tuning, Capo 7
E||--------------------|--------------------|--------------------|--------------------||
B||-----------1--------|-----------1--------|-----------1--------|-----------1--------||
G||--------0-----0-----|--------0-----0-----|--------0-----0-----|--------0-----0-----||
D||-----2-----------2--|-----2-----------2--|-----3-----------3--|-----0-----------0--||
A||--3-----------------|--0-----------------|--------------------|--------------------||
E||--------------------|--------------------|--1-----------------|--3-----------------||

Here are the variations!
E||--------------------|--------------------|--------------------|---------------0----||
B||-----------1--------|-----------1--------|-----------1--------|-----------1--------||
G||--------0-----0-----|--------0-----0-----|--------0-----0-----|--------0-----------||
D||-----2-----------2--|-----2-----------2--|-----3-----------3--|-----0--------------||
A||--3-----------------|--0-----------------|--------------------|--------------------||
E||--------------------|--------------------|--1-----------------|--3-----------------||

E||--------------------|--------------------|--------------------|--------------------||
B||-----------1--------|-----------1--------|-----------1--------|----------1-------3-||
G||--------0-----0-----|--------0-----0-----|--------0-----0-----|-------0-----0------||
D||-----2-----------2--|-----2-----------2--|-----3--------------|----0----------0----||
A||--3-----------------|--0-----------------|-----------------0--|--------------------||
E||--------------------|--------------------|--1-----------------|--3-----------------||


And, without capo!

Tuning: Standard tuning
E||-----------3--------|-----------3--------|-----------3--------|-----------3--------||
B||--------3-----3-----|--------3-----3-----|--------3-----3-----|--------3-----3-----||
G||-----0-----------0--|-----0-----------0--|-----0-----------0--|-----2-----------2--||
D||--------------------|--2-----------------|--------------------|--0-----------------||
A||--------------------|--------------------|--3-----------------|--------------------||
E||--3-----------------|--------------------|--------------------|--------------------||
Добавлено: 11.11.2013
Другие материалы по этой песне:
  • Аккорды и текст

Страница создана 11.11.2013
http://primanota.ru/i-can-make-a-mess-like-nobodys-business/my-hands-hurt-chords.htm
Привет, Гость.
Предлагаем пройти революционный курс по гитаре.
Подарок от PrimaNota.Ru, забирай!