PrimaNota.ru - самый крупный в мире бесплатный архив песенных текстов, аккордов, табулатур и нот


I Am The Avalanche - Mrs Green - таба, видео

Регистрация Запомнить меня
Войти через:  Facebook Google Twitter Vk Yandex Mail.ru

I Am The Avalanche - Mrs Green - таба, видео

Печатать
Просмотров: 250
Hey this is my first tab this is Mrs Green by IATA
Harmonics = *

e|---------------------------------------------------------------------------|
b|---------------------------------------------------------------------------|
g|---------------------------------------------------------------------------|
D|---------4---------4---------4--------4-------------4----------------------|
A|-----6------6--5------5--4------4--3-----3-2-2-2-2-------------------------|
E|---------------------------------------------------------------------------|

e|---------------------------------------------------------------------------|
b|---------------------------------------------------------------------------|
g|---------------------------------------------------------------------------|
D|---------4---------4---------4--------4-------------4-------7-7-7-7--------|
A|-----6------6--5------5--4------4--3-----3-2-2-2-2------------------7------|
E|---------------------------------------------------------------------------|
                                                              * * * * *
Добавлено: 12.04.2012
Другие материалы по этой песне:
  • Аккорды и текст

Страница создана 12.04.2012
http://primanota.ru/i-am-the-avalanche/mrs-green-chords.htm
Привет, Гость.
Предлагаем пройти революционный курс по гитаре.
Подарок от PrimaNota.Ru, забирай!