PrimaNota.ru - самый крупный в мире бесплатный архив песенных текстов, аккордов, табулатур и нот


I Am Oak - Boulders - таба, видео

Регистрация Запомнить меня
Войти через:  Facebook Google Twitter Vk Yandex Mail.ru

I Am Oak - Boulders - таба, видео

Печатать
Просмотров: 126
Tuning: Standard 
Capo: 2nd Fret

  Main section:
e|---------------------------------------------------------------------------|
B|---------------------------------------------------------------------------|
G|----5-----5--0-----0--2-----2---0------------------------------------------|
D|------3--------2--------3-------2-2----------------------------------------|
A|----5---5----3---3----1---1-------3----------------------------------------|
E|--------------------------------3-0----------------------------------------|
                                        ^Repeat 4x
  Middle Section:
e|---------------------------------------------------------------------------|
B|---------------------------------------------------------------------------|
G|----2-0-------------------------------5-----5--0-----0---------------------|
D|----------3--2-------------0------------3--------2-----2-----2-------2-----|
A|----3--3----------3--------2----------5---5----3---3-----3-------3---------|
E|-------------1--1---1--1---3--3--3--3------------------1---1---1---1-------|

e|---------------------------------------------------------------------------|
B|---------------------------------------------------------------------------|
G|----5-----5--0-----0--------------------5-----5--0-----0-------------------|
D|------3--------2-----2-----2--2-----2-----3--------3-----2-----2-----------|
A|----5---5----3---3-----3--------3-------5---5----3---3-----3---------------|
E|---------------------1---1----3---3----------------------1---1---1--1------|

  Chorus:
e|---------------------------------------------------------------------------|
B|---------------------------------------------------------------------------|
G|----2-0--------------------------------------------------------------------|
D|---------3--2------------0-------------------------------------------------|
A|----3--3---------3-------2-------------------------------------------------|
E|------------1--1---1--1--3--3----------------------------------------------|
                                 ^Repeat 4x

Then, repeat Main Section 4x
Then, repeat Chorus 4x
Добавлено: 10.11.2015
Другие материалы по этой песне:
  • Аккорды и текст

Страница создана 10.11.2015
http://primanota.ru/i-am-oak/boulders-chords.htm
Привет, Гость.
Предлагаем пройти революционный курс по гитаре.
Подарок от PrimaNota.Ru, забирай!