PrimaNota.ru - самый крупный в мире бесплатный архив песенных текстов, аккордов, табулатур и нот


I Am Ghost - Pretty People Never Lie Vampires Never Really Die - текст песни, таба, видео

Регистрация Запомнить меня
Войти через:  Facebook Google Twitter Vk Yandex Mail.ru

I Am Ghost - Pretty People Never Lie Vampires Never Really Die - текст песни, таба, видео

Печатать
Просмотров: 267
Уроки эстрадного вокала в Санкт-Петербурге
----------------------------------------------------------------------------
                               I Am Ghost
             Pretty People Never Lie, Vampires Really Never Die
----------------------------------------------------------------------------

I'm sorry guys but this isn't the whole song! This is only the intro, because i'm still
on the whole song and so it should be out in about too weeks. So you guys are probably
"why not wait until you know the whole thing" and i wanted to put out the intro just to 
what you guys are i for. Alright? Now i'm not 100% sure about it but it is the best i
do. Note i never even went to one of there concerts because none are in san diego!!! 
for viewing and hope you enjoy!

Usersname: dkm817 (same one on xbox live)
Email: mdmoore26@cox.net

Guitar 1 (D A D G B E)rythum
Guitar 2 (D A D G B E)lead

Intro

Guitar 1 (00:00)-(00:08)
E----------------------------------|
B----------------------------------|
G----------------------------------|
D-0~~~~~~~0~~~~~~~~0~~~~~~~~0~~~~~~
A-0~~~~~~~0~~~~~~~~0~~~~~~~~0~~~~~~
D-0~~~~~~~0~~~~~~~~0~~~~~~~~0~~~~~~

Guitar 2 continues below (00:00)-(00:06)
E-------------------------------------------------------------------|
B-17--16--17--16---17-16-17--16--17--16---17-16-17--16--17--16--17--|
G-20--19--20--19---20-19-20--19--20--19---20-19-20--19--20--19--20--|
D-------------------------------------------------------------------|
A-------------------------------------------------------------------|
D-------------------------------------------------------------------|

Guitar 2 (00:06)-(00:08)
E---------------------|
B-17--16--17--16--17--|
G-20--19--20--19--20--|
D---------------------|
A---------------------|
D---------------------|

Guitar 1 (00:08)-(00:27)
E------------------------------------------------------------------|
B------------------------------------------------------------------|
G------------------------------------------------------------------|
D-0-0-0-0-0-0-0-0-8-8-8-8-8-8-8-8-5-5-5-5-5-5-5-5-3-3-3-3-2-2-2-2--| x2
A-0-0-0-0-0-0-0-0-8-8-8-8-8-8-8-8-5-5-5-5-5-5-5-5-3-3-3-3-2-2-2-2--|
D-0-0-0-0-0-0-0-0-8-8-8-8-8-8-8-8-5-5-5-5-5-5-5-5-3-3-3-3-2-2-2-2--|

Guitar 2 continues below (00:08)-(00:15)
E----------------------------------|
B----------------------------------|
G---2-3----------------------------|
D-0-----0-2-3-2--1-3-4-1--3-2-1-0--| x3
A----------------------------------|
D----------------------------------|

Guitar 2 continue below (00:15)-(00:20)
E----------------------------|----------------------------|
B----------------------------|----------------------------|
G----------------------------|------2---2h3p2-2---2---2---|
D-0-0--3--3-0---5-3--2h3p2-0-|--0-0---0---------0---0-----|
A----------------------------|----------------------------|
D----------------------------|----------------------------|

Guitar 2 continues below (00:20)-(00:24)
E------------------------|------------------------------------|
B------------------------|------------------------------------|
G-----3-2-----5-3-2h3p2-0|------------------------------2-4-5-|
D-0-0-----0--------------|-0-0-3-0--0-2-1-0-2-3-2-4-5---------|
A------------------------|------------------------------------|
D------------------------|------------------------------------|

Guitar 2 (00:24)-(00:27)
E----------------------------------------|
B----------------------------------------|
G------------------2-4-5-4-2-------------|
D-0-0--0-2-3-2-4-5-----------5-4-2-3-2-0-|
A----------------------------------------|
D----------------------------------------|

Guitar 1 and 2 (00:27)-(00:33)
E------------------------------------|
B-----14-14-----14-14-----14--14-14--|
G-----17-17-----17-17-----17--17-17--|
D-0-0-------0-0-------0-0------------| x3
A-0-0-------0-0-------0-0------------|
D-0-0-------0-0-------0-0------------|

Guitar 1 (00:33)-(00:37)
E--------------------------------|
B-14~~~~~~~~~~~~~~~~~------------|
G-17~~~~~~~~~~~~~~~~~------------|
D--------------------0~~~~~~~~~~-|
A--------------------0~~~~~~~~~~-|
D--------------------0~~~~~~~~~~-|

Guitar 2 (00:33)-(00:37)
E-------------------------------------------------------------|
B-------------------------------------------------------------|
G-------------------------------------------------------------|
D-7-6-4-5-4-2-5-4-2-5-4-2-4-3-1-4-3-1-4-3-1-3-2-0-0~~~~~~~~~~-|
A-------------------------------------------------0~~~~~~~~~~-|
D-------------------------------------------------0~~~~~~~~~~-|

Tab Legend
h - hammer-on
p - pull-off
b - bend
r - return from bend
pm- palm mute
* - harmonic
\ - slide up
/ - slide down
~ - let ring

Theres the intro to my point of view. How you liked it, if not you just gonna have to
and hopefully make your own WHOLE song tab. P S if you play on xbox live and send me a
about the tab please don'tmake it offensive ok. This is the only tab on it, for now...
Добавлено: 19.03.2012
Другие материалы по этой песне:

Страница создана 19.03.2012
http://primanota.ru/i-am-ghost/pretty-people-never-lie-vampires-never-really-die-chords.htm
Привет, Гость.
Предлагаем пройти революционный курс по гитаре.
Подарок от PrimaNota.Ru, забирай!