PrimaNota.ru - самый крупный в мире бесплатный архив песенных текстов, аккордов, табулатур и нот


I Am Ghost - Make Me Believe This Is Real - текст песни, таба, видео

Регистрация Запомнить меня
Войти через:  Facebook Google Twitter Vk Yandex Mail.ru

I Am Ghost - Make Me Believe This Is Real - текст песни, таба, видео

Печатать
Просмотров: 201
I AM GHOST - MAKE ME BELIEVE THIS IS REAL
TABBED BY GEORGE WILLIAMS 
DROPPED D TUNING (DADGBE) 

ok this is the second last song i have to tab on the album, and its the 
easiest of the lot. i mean like reaally easy. 
so yeh nearly finished the album, only smile of a jesus freak left..
comment with any corrections you have.
cheeeers.
oh and have a look at my other i am ghost tabs (Y) good lad.

legend: 

| b    bend 
| r    return 
| /    slide up 
| \    slide down 
| h    hammer on 
| p    pull off 
| *    pinch harmonic 
| ~    tremolo 
| ...  palm muted 
| x    muted note 
| (n)  optional note 
| tp   tremolo picked
| ==   hold bend


INTRO:

|---------------------------------------------------------------|
|---------------------------------------------------------------|
|-14t2-16t2-14t2-17t2-14t2-16t2--14t2-16t2-14t2-17t2-14t2-16t2--|
|---------------------------------------------------------------|
|---------------------------------------------------------------|
|---------------------------------------------------------------|

|----------------------------------------------------------|
|----------------------------------------------------------|
|-9t2-10t2-9t2-12t2-9t2-10t2--9t2-10t2-9t2-17t2-16t2-17t2--|
|----------------------------------------------------------|
|----------------------------------------------------------|
|----------------------------------------------------------|

|----------------------------------------------------|
|----------------------------------------------------|
|-14t2-16t2-14t2-17t2-14t2-16t2--14t2-16t2-14/21~~\--|
|----------------------------------------------------|
|----------------------------------------------------|
|----------------------------------------------------|

|----------------------------------------------------------|
|----------------------------------------------------------|
|-9t2-10t2-9t2-12t2-9t2-10t2--9t2-10t2-9t2-17t2-16t2-17t2--|
|----------------------------------------------------------|
|----------------------------------------------------------|
|----------------------------------------------------------|

>REPEAT INTRO<


VERSE:
clean

|----------------------------------------0~-|
|---------0------------0------------0----x--|
|---5---5---5----5---5---5----5---5---5--5~-|
|-7---7--------7---7--------6---6--------6~-|
|-------------------------------------------|
|-------------------------------------------|

|----------------------------------------5~-|
|---------0------------0------------5----5~-|
|---5---5---5----5---5---5----5---5---5--5~-|
|-3---3--------3---3--------7---7--------7~-|
|-------------------------------------------|
|-------------------------------------------|

>REPEAT VERSE<


PRECHORUS:
distortion

|--------------------------------------------------|
|--------------------------------------------------|
|---------------------/9~--10-9-7------------------|
|-----10-----9-----10-------------10-9-10~-9~------|
|-3~------------------------------------------11~--|
|-3~-----x-x---x-x---------------------------------|


CHORUS:
its not even octave chords.. just trem pick the notes.

|--------------------------------|-----------------------------|
|-10tp----12tp-13tp12tp---9tp----|-----------------------------|
|--------------------------------|-9tp--------5tp------9tp-----|
|--------------------------------|-----------------------------|
|--------------------------------|-----------------------------|
|--------------------------------|-----------------------------|

|----------------------------------|--------------------------------|
|-10tp----12tp-13tp-12tp----/17tp--|-15tp-13tp------12p---8tp--10~--|
|----------------------------------|--------------------------------|
|----------------------------------|--------------------------------|
|----------------------------------|--------------------------------|
|----------------------------------|--------------------------------|

>REPEAT VERSE<
>REPEAT PRECHORUS<
>REPEAT CHORUS<
>REPEAT INTRO<

BRIDGE/(solo?)
just trem picked notes. if you dont have 24frets, bend from 22.

|-----------------//24tp----//24tp---|
|-/22tp---/24tp----------------------|
|------------------------------------|
|------------------------------------|
|------------------------------------|
|------------------------------------|

>REPEAT VERSE AS FADING OUT<
>REPEAT VERSE AS FADING OUT<

and thats it. told you it was easy. 
and very easy to tab..
but still rate and comment.
cheers
Добавлено: 01.03.2012
Другие материалы по этой песне:
  • Аккорды и текст

Страница создана 01.03.2012
http://primanota.ru/i-am-ghost/make-me-believe-this-is-real-chords.htm
Привет, Гость.
Предлагаем пройти революционный курс по гитаре.
Подарок от PrimaNota.Ru, забирай!