PrimaNota.ru - самый крупный в мире бесплатный архив песенных текстов, аккордов, табулатур и нот


I Am Ghost - Denouement - таба, видео

Регистрация Запомнить меня
Войти через:  Facebook Google Twitter Vk Yandex Mail.ru

I Am Ghost - Denouement - таба, видео

Печатать
Просмотров: 171
Song: The Denouement
Artist: I am Ghost
Album: Lovers' Requiem
Tuning: Drop C (CGCFAD)


Part I (After Choir Vocals)
|---------------------------------------------------| 2x
|---------------------------------------------------|
|---------------------------------------------------|
|-0-0-00-0-----------------0-0-00-0-----------------|
|-0-0-00-0-----------------0-0-00-0-----------------|
|-0-0-00-0-----------------0-0-00-0-----------------|
PM| - -- -                 - - -- -

|----------------------------------------------------------| 2x
|----------------------------------------------------------|
|----------------------------------------------------------|
|-0-0-00-0--------------------0-0-00-0---------------10-12-|
|-0-0-00-0---13-12-10-8-10-12-0-0-00-0---13-12-10-12-------|
|-0-0-00-0--------------------0-0-00-0---------------------|
PM| - --                      - - --  

|--------------------------------------------------------------|
|--------------------------------------------------------------|
|--------------------------------------------------------------|
|--------------------------------------------------------------|
|-0-0-00-0-0--------------------0-0-00-0-0---------------10-12-|
|-0-0-00-0-0---13-12-10-8-10-12-0-0-00-0-0---13-12-10-12-------|
|-0-0-00-0-0--------------------0-0-00-0-0---------------------|
PM| - -- - -                    - - -- - -

|--------------------------------------------------------------|
|--------------(tremolo picking)-------------(tremolo picking)-|
|--------------------------------------------------------------|
|-000000000000------------------000000000000-------------10-12-|
|-000000000000-13-12-10-8-10-12-000000000000-13-12-10-12-------|
|-000000000000------------------000000000000-------------------|
PM|----------- -- -- -- - -- -- ------------ -- -- -- -- -- --

Break for Vocals


Part II
|----------------------------------------------------------------------------------------|5x
|----------------------------------------------------------------------------------------|
|----------------------------------------------------------------------------------------|
|-121212121212121212121212-101010101010101010101010-888888888888-10-10101010-11-11111111-|
|-121212121212121212121212-101010101010101010101010-888888888888-10-10101010-11-11111111-|
|-121212121212121212121212-101010101010101010101010-888888888888-10-10101010-11-11111111-|

After the riff above sometimes a smaller riff is played on the 10s and 11s.
1st Time
|---------------------------------------------------|
|---------------------------------------------------|
|--------------------------------12-12121212-9-9999-|
|--------------------------------x--x-x-x-x--x-xxxx-|
|--------------------------------10-10101010-7-7777-|
|---------------------------------------------------|

2nd Time
|---------------------------------------------------|
|---------------------------------------------------|
|---------------------------------------------------|
|-----------------------------------------10//19----|
|---------------------------------------------------|
|---------------------------------------------------|

3rd Time
|---------------------------------------------------|
|---------------------------------------------------|
|--------------------------------12-14-12-10-12-10--|
|--------------------------------x--x--x--x--x--x---|
|--------------------------------10-12-10-8--10-8---|
|---------------------------------------------------|

4th Time
|---------------------------------------------------|
|---------------------------------------------------|
|---------------------------------------------------|
|-----------------------------------------10//19----|
|---------------------------------------------------|
|---------------------------------------------------|

5th Time
|---------------------------------------------------|
|---------------------------------------------------|
|-----------------------------------12-10-9-12-10-9-|
|-----------------------------------x--x--x-x--x--x-|
|-----------------------------------10-8--7-10-8--7-|
|---------------------------------------------------|

Outro
|--------------------------------------------------------------------------|
|--------------------------------------------------------------------------|
|--------------------------------------------------------------------------|
|-1212121212-12-10101010101010101010-888888888888-101010101010101010101010-|
|-1212121212-12-10101010101010101010-888888888888-101010101010101010101010-|
|-1212121212-12-10101010101010101010-888888888888-101010101010101010101010-|

|-----------------------------------------------------------------------------------------|
|-----------------------------------------------------------------------------------------|
|-----------------------------------------------------------------------------------------|
|-111111111111111111111111-888888888888-101010101010101010101010-111111111111111111111111-|
|-111111111111111111111111-888888888888-101010101010101010101010-111111111111111111111111-|
|-111111111111111111111111-888888888888-101010101010101010101010-111111111111111111111111-|

End On
|---------------------|
|---------------------|
|---------------------|
|-0~------------------|
|-0~------------------|
|-0~------------------|
Добавлено: 19.05.2012
Другие материалы по этой песне:
  • Аккорды и текст

Страница создана 19.05.2012
http://primanota.ru/i-am-ghost/denouement-chords.htm
Привет, Гость.
Предлагаем пройти революционный курс по гитаре.
Подарок от PrimaNota.Ru, забирай!