PrimaNota.ru - самый крупный в мире бесплатный архив песенных текстов, аккордов, табулатур и нот


I Am Abomination - Since 1776 - таба, видео

Регистрация Запомнить меня
Войти через:  Facebook Google Twitter Vk Yandex Mail.ru

I Am Abomination - Since 1776 - таба, видео

Печатать
Просмотров: 217
d|--12b-12b-12b----------------------------|
a|--15b-15b-15b---15p12-14b-xx-------------|
f|----------------------14b-xx-12----------|
C|-------------------------------14~----\\\|
G|--------------------------------------\\\| (Go down neck from about 16 all 
C|--------------------------------------\\\|   the way down)


d|--------------------------------------------|
a|--------------------------------------------|
f|-----------------------------14-------12----|
c|--------------------12-14-15----12-12---14~-|
g|------------12-14-15------------------------|
c|----12-14-15--------------------------------|
.(PM)..........................   ..  ..
*(T.P)*************************

d|---12tp15po12--12--12b------| 
a|15-----------15----15b------| 
f|----------------------------| 
c|----------------------------| 
g|----------------------------|
c|----------------------------| 
 tp=tap

 |(12)--17-15-14-17-15-14-17-15-14-15-14-15--15bbb--| Bend the 15 twice like a 
 |--------------------------------------------------| boss
 |--------------------------------------------------|
 |--------------------------------------------------|
 |--------------------------------------------------|
 | -------------------------------------------------|                        
(While holding 12 tremolo pick between 14 15 and 17)

 |12h15h17t18p17p15p12h15h17t18|      |---------------------------------------------|5(N.H
 |-----------------------------|      |12hm15hm17po15po12---------------------------|5 Dive
 |-----------------------------| Then |------------------12(N.H&whammy)-0(open------|5 Bomb)
 |-----------------------------|      |---------------------------------whammy down)|
 |-----------------------------|      |---------------------------------------------|
 |-----------------------------|      |---------------------------------------------|
 Do this part 6 times 

If you cant get it down ill post a video soon i swear this is close to perfect!!!
Добавлено: 24.11.2013
Другие материалы по этой песне:
  • Аккорды и текст

Страница создана 24.11.2013
http://primanota.ru/i-am-abomination/since-1776-chords.htm
Привет, Гость.
Предлагаем пройти революционный курс по гитаре.
Подарок от PrimaNota.Ru, забирай!