PrimaNota.ru - самый крупный в мире бесплатный архив песенных текстов, аккордов, табулатур и нот


I-94 - The End - таба, видео

Регистрация Запомнить меня
Войти через:  Facebook Google Twitter Vk Yandex Mail.ru

I-94 - The End - таба, видео

Печатать
Просмотров: 111
Tabbed & Arranged by: Josh Daley

Tuning: E A D G B E (Standard)


Verse:

--x----x----|
--0----0----|
--1----4----| x2
--2----4----|
--2----2----|
------------|

--x----x--x--x----|
--0----0--0--0----|
--1----6--4--2----|
--2----6--4--2----|
--2----4--2--0----|
------------------|



Pre chorus:

----------|
----------|
--3-------|
--4-------|
--4---/7--|
--2---/5--|



Chorus:

--x----x----|
--0----0----|
--1----4----| x3
--2----4----|
--2----2----|
------------|

--x----x----|
--0----0----|
--6----4----|
--6----4----|
--4----2----|
------------|



Bridge:

--0--------x----|
--0--------0----|
--1--------4----|
--2--------4----|
--2--------2----|
----------------|

--0----0-x----x----|
--0----0-0----0----|
--1----2-2----4----|
--2----2-2----4----|
--2----2-0----2----|
-------------------|



Interlude: (play chorus)



Outro: (Play chorus x2)
Добавлено: 13.07.2013
Другие материалы по этой песне:
  • Аккорды и текст

Страница создана 01.07.2013
http://primanota.ru/i-94/the-end-chords.htm
Привет, Гость.
Предлагаем пройти революционный курс по гитаре.
Подарок от PrimaNota.Ru, забирай!