PrimaNota.ru - самый крупный в мире бесплатный архив песенных текстов, аккордов, табулатур и нот


Hyukoh - Comes And Goes - аккорды и текст, видео

Регистрация Запомнить меня
Войти через:  Facebook Google Twitter Vk Yandex Mail.ru

Hyukoh - Comes And Goes - аккорды и текст, видео

Печатать
Просмотров: 234
Уроки эстрадного вокала в Санкт-Петербурге
Comes And Goes
Hyukoh
-------------------------------------------------------------------------------
                    Comes and Goes (와리가리) - Hyukoh (혁오)
-------------------------------------------------------------------------------

Tuning: Standard

Chord progression:
  F#m   C#m7  Bm7   C#m7
---9---------------------|
--10----9-----7-----9----|
--11----9-----7-----9----|
--11----9-----7-----9----|
---9----x-----x-----x----|
--------9-----7-----9----|

Play the same progression with variations (listen to the song to understand timing)

Verse 1: (x = beat)
e|---------------------------------------------------------------------|
B|--------10--------9-----7----(7)----9----(9)-------------------------|
G|--------11--------9-----7----(7)----9----(9)-------------------------|
D|--------11--------9-----7----(7)----9----(9)-------------------------|
A|---9--------------x-----x----(x)----x----(x)-------------------------|
E|------------------9-----7----(7)----9----(9)-------------------------|
     x     x     x     x     x     x     x     x  

Chorus: (spam the four chords)
 F#m   C#m7  Bm7   C#m7
e|---9---------------------|
B|--10----9-----7-----9----|
G|--11----9-----7-----9----|
D|--11----9-----7-----9----|
A|---9----x-----x-----x----|
E|--------9-----7-----9----|

Verse 2 + Outro:
e|---9-----9--x--------------------------------------------------------------|
B|--10----10--x--9----9---x--7-----7--x---9----9--x--------------------------|
G|--11----11--x--9----9---x--7-----7--x---9----9--x--------------------------|
D|--11----11--x--9----9---x--7-----7--x---9----9--x--------------------------|
A|---9-----9--x--x----x---x--x-----x--x---x----x--x--------------------------|
E|---------------9----9---x--7-----7--x---9----9--x--------------------------|
        x     x     x     x     x     x     x     x    

Lyrics:
F#m                   C#m7   Bm7  C#m7
   geureon seulpeun mareul haji mayo
F#m              C#m7  Bm7     C#m7
   ama geureol jureun arassneunde
F#m                 C#m7   Bm7      C#m7
   ijen jom janjanhada haesseossneunde
      F#m    C#m7  Bm7   C#m7
dwido doraboji anha

F#m                C#m7   Bm7  C#m7
   geureon maeumeul najchuji mayo
F#m           C#m7      Bm7     C#m7
   jeogi dagaonda gidaehaessneunde
F#m                    C#m7      Bm7  C#m7
   tto han pyeon eonjenganeun tteonagalgeol
  F#m            C#m7  Bm7   C#m7
ijen seuljjeok bwado ara

F#m   C#m7    Bm7       C#m7
  And we play comes and goes
F#m           C#m7             Bm7      C#m7
'cause we did this when we were child before
F#m   C#m7    Bm7       C#m7
  and we play comes and goes
F#m             C#m7                Bm7      C#m7
'cause big boys still play the game all the time

F#m                    C#m7     Bm7   C#m7
   da sseun yagwangbyeoreul tteeonaessjyo
F#m               C#m7   Bm7      C#m7
    yeoteun bicceul salpigo isseumyeon
F#m                C#m7     Bm7  C#m7
   naeiri geuri gidaryeojyeossneunde
    F#m        C#m7  Bm7   C#m7
ijen geureohjido anha

F#m                C#m7     Bm7  C#m7
   eoryeosseul ttae mollae humchyeobwassdeon
F#m           C#m7     Bm7    C#m7
   appaui sucheop gateun ilgijangen
F#m             C#m7       Bm7     C#m7
   oneurui geokjeongi jeokhyeoissdeon ge
    F#m     C#m7  Bm7  C#m7
ijeya saenggaknane

F#m   C#m7    Bm7       C#m7
  And we play comes and goes
F#m           C#m7             Bm7      C#m7
'cause we did this when we were child before
F#m   C#m7    Bm7       C#m7
  and we play comes and goes
F#m             C#m7                Bm7      C#m7
'cause big boys still play the game all the time

F#m              C#m7  Bm7 C#m7
   iksukhani tto mudyeojineyo
F#m                 C#m7         Bm7   C#m7
   heulleogan jangmyeoni pyeolchyeojineyo
F#m                    C#m7  Bm7 C#m7
   dasi geu sunganeul majuhandaedo
F#m                 C#m7     Bm7   C#m7
   geuttaen tto jigeum gatjin anhgessji


F#m   C#m7    Bm7       C#m7
  And we play comes and goes
F#m           C#m7             Bm7      C#m7
'cause we did this when we were child before
F#m   C#m7    Bm7       C#m7
  and we play comes and goes
F#m             C#m7                Bm7      C#m7
'cause big boys still play the game all the time

F#m    C#m7    Bm7    C#m7      F#m
     Familiarity is a common sense
  C#m7      Bm7     C#m7    F#m
I feel like I'm not here anymore
     C#m7     Bm7  C#m7  F#m     C#m7   Bm7  C#m7
geunyang dadeul angoseon salgo issdeorago

F#m   C#m7  Bm7   C#m7 (x4)
woo
woo

F#m   C#m7  Bm7   C#m7 (x4)

F#m                C#m7     Bm7  C#m7
    dadeul geureohgedeul tteonanayo
F#m                C#m7     Bm7 C#m7
    imi jeo neomeo meollie gaissne
F#m             C#m7    Bm7  C#m7
    yeogieneun amudo an ol teni
       F#m         C#m7    Bm7  C#m7
geunyang jibeuro doragallae
Добавлено: 17.02.2016
Другие материалы по этой песне:
  • Аккорды и текст

Страница создана 17.02.2016
http://primanota.ru/hyukoh/comes-and-goes-chords.htm
Привет, Гость.
Предлагаем пройти революционный курс по гитаре.
Подарок от PrimaNota.Ru, забирай!