PrimaNota.ru - самый крупный в мире бесплатный архив песенных текстов, аккордов, табулатур и нот


Hyro Da Hero - Ghetto Ambiance - таба, видео

Регистрация Запомнить меня
Войти через:  Facebook Google Twitter Vk Yandex Mail.ru

Hyro Da Hero - Ghetto Ambiance - таба, видео

Печатать
Просмотров: 71
-------------------------------------------------------------------------------
                 Ghetto Ambiance - Hyro Da Hero http://www.hyrodahero.com/
-------------------------------------------------------------------------------
Pretty simple song. Just to make this clear i never write tabs cuz lets be honest tabs
for most things are always there! However this song remains to be tabbed even though its
been out for years so i decided to just go for it. You may not be 100% happy with it, 
neither am I, but its better than nothing right?

Tuning: Standard/DropD (READ BELOW)

The band play in Drop D however as far as I can tell it is unnecessary for this song.

Intro

Guitar 1 w/distortion

e|---------------------------------------------------------------------------|
B|---------------------------------------------------------------------------|
G|--13-13-13-13-13-13-13-13-13-13-13-13-13-13-13-13-16-16-16-16-16-16-16-16--|
D|---------------------------------------------------------------------------|
A|--11-11-11-11-11-11-11-11-11-11-11-11-11-11-11-11-14-14-14-14-14-14-14-14--|
E|---------------------------------------------------------------------------|

e|---------------------------------------------------------------------------|
B|--17-17-17-18--------------------------------------------------------------|
G|---------------------------------------------------------------------------|
D|--15-15-15-16--------------------------------------------------------------|
A|---------------------------------------------------------------------------|
E|---------------------------------------------------------------------------|

Verse - Guitar 1 w/ Reverb+Delay (not so sure about this but it'll do)

e|--9-9-9-9-9-9-9-9-9-9-9-9-9-9-9-9-8-8-8-8-8-8-8-8-8-8-8-8-8-8-8-8----------|
B|---------------------------------------------------------------------------|
G|-----------------------------Repeat throughout Verse-----------------------|
D|---------------------------------------------------------------------------|
A|---------------------------------------------------------------------------|
E|---------------------------------------------------------------------------|

Guitar 2 w/distortion

e|---------------------------------------------------------------------------|
B|---------------------------------------------------------------------------|
G|-----You-can-improvise-this-section-also-with-the-notes-shown--------------|
D|-------------------------2-------------------------------------------------|
A|--4--4-2-4--4-2-4--4-2-4---4-2--4-4-4-4-2-2-2-2----------------------------|
E|---------------------------------------------------------------------------|



Bridge - Guitar repeats intro



Chorus Guitars 1+2 w/Distortion

e|---------------------------------------------------------------------------|
B|---------------------------------------------------------------------------|
G|------------------------------4-4-4--8-8-8--9-9-9----------Repeat----------|
D|--4-4-4--6-6-6--7-7-7--2-2-2--4-4-4--8-8-8--9-9-9--6-6-6-------------------|
A|--4-4-4--6-6-6--7-7-7--2-2-2--2-2-2--6-6-6--7-7-7--6-6-6-------------------|
E|--2-2-2--4-4-4--5-5-5--0-0-0-----------------------4-4-4-------------------|


Bridge2 Just mess around with the c# power chord below, then play mute notes above 1st
first and harmonics on the 7th fret. Listen to the recording it'll make more sense.

e|-----------------------------------7+--------------------------------------|
B|-----------------------------------7+--------------------------------------|
G|---6-------------------------------7+--------------------------------------|
D|---6-------------------------x-x-x-7+--------------------------------------|
A|---4-------------------------x-x-x-----------------------------------------|
E|-----------------------------x-x-x-----------------------------------------|


Repeat verse. There's a bit more lead by Guitar 2 during this put its pretty faint and
hard to make out, sorry...


The lead up to chorus 2 just play mute notes on the first fret as heard on the recording


Repeat Chorus

Repeat Verse

Repeat Chorus



Outro- Similar to Guitar2 during verse

e|---------------------------------------------------------------------------|
B|---------------------------------------------------------------------------|
G|---------------------------------------------------------------------------|
D|-------------------------2----------------Repeat-4-Times-------------------|
A|--4--4-2-4--4-2-4--4-2-4---4-2---------------------------------------------|
E|---------------------------------------------------------------------------|


************************************

| /   slide up
| \   slide down
| h   hammer-on
| p   pull-off
| ~   vibrato
| +   harmonic
| x   Mute note
| b   Bend
| pb  Pre-bend
| br  Bend release
| pbr Pre-bend release
| brb Bend release bend

************************************
Добавлено: 02.12.2013
Вам также может быть интересно:
Другие материалы по этой песне:
  • Аккорды и текст

Страница создана 02.12.2013
http://primanota.ru/hyro-da-hero/ghetto-ambiance-chords.htm
Привет, Гость.
Предлагаем пройти революционный курс по гитаре.
Подарок от PrimaNota.Ru, забирай!