PrimaNota.ru - самый крупный в мире бесплатный архив песенных текстов, аккордов, табулатур и нот


Hyro Da Hero - Dirty South Rock - таба, видео

Регистрация Запомнить меня
Войти через:  Facebook Google Twitter Vk Yandex Mail.ru

Hyro Da Hero - Dirty South Rock - таба, видео

Печатать
Просмотров: 91
-------------------------------------------------------------------------------
                             Dirty South Rock - Hyro Da Hero http://www.hyrodahero.com/
-------------------------------------------------------------------------------

http://www.youtube.com/watch?feature=endscreen&NR=1&v=Dtxd9E1fYSo

Very simple song guitar wise, only two riffs repeated throughout with a bridge towards the end.

Tuning:standard

Guitar w/Distortion


Riff 

e|---------------------------------------------------------------------------|
B|---------------------------------------------------------------------------|
G|---------------------------------------------------------------------------|
D|---------------------------------------------------------------------------|
A|-----------------------3-----------------------------5---------------------|
E|--10\-----3h5-5--3h5-5----5-3h5-5-------3h5-5--3h5-5----5-3h5-5------------|

*The 10 slide is only for the intro, the rest of the song is only the riff repeated



pre chorus

e|---------------------------------------------------------------------------|
B|---------------------------------------------------------------------------|
G|--5------7----------------------5------7-----------------------------------|
D|--5------7------5/7----5/7------5------7------5/7----5/7--555--------------|
A|--3------5------5/7----5/7------3------5------5/7----5/7--555--------------|
E|----------------3/5----3/5--------------------3/5----3/5--333--------------|

Bridge (at 2:45 of music video, link at top)

e|---------------------------------------------------------------------------|
B|---------------------------------------------------------------------------|
G|---------------------------------------------------------------------------|
D|--7---------2--------3-----------------------------------------------------|
A|--7-(x16)---2-(x8)---3-(x8)--------Repeat----------------------------------|
E|--5---------0--------1-----------------------------------------------------|


************************************

| /   slide up
| \   slide down
| h   hammer-on
| p   pull-off
| ~   vibrato
| +   harmonic
| x   Mute note
| b   Bend
| pb  Pre-bend
| br  Bend release
| pbr Pre-bend release
| brb Bend release bend

************************************
Добавлено: 13.11.2013
Вам также может быть интересно:
Другие материалы по этой песне:
  • Аккорды и текст

Страница создана 13.11.2013
http://primanota.ru/hyro-da-hero/dirty-south-rock-chords.htm
Привет, Гость.
Предлагаем пройти революционный курс по гитаре.
Подарок от PrimaNota.Ru, забирай!