PrimaNota.ru - самый крупный в мире бесплатный архив песенных текстов, аккордов, табулатур и нот


Hypomanie - You Never Gazed At The Clouds - таба, видео

Регистрация Запомнить меня
Войти через:  Facebook Google Twitter Vk Yandex Mail.ru

Hypomanie - You Never Gazed At The Clouds - таба, видео

Печатать
Просмотров: 102
Hola, les dejo esta tablatura, muy sencilla, pero excelente material del Señor 
"S." Creador de Deep-Pression y "..." Que Disfruten al tocar este maravilloso material :)
Afinación Estándar.

Hypomanie 
You Never Gazed at the Clouds
Tab By Skonges

Ayuda

* = alternate picking


intro X5
e|-----------------------------------------------------------------------|
B|-----------------------------------------------------------------------|
G|8--8-8-8--8--8-8-8--8--8-8-8--11--11-11-11--11--11-11-11--11--11-11-11-|
D|8--8-8-8--8--8-8-8--8--8-8-8--11--11-11-11--11--11-11-11--11--11-11-11-|
A|6--6-6-6--6--6-6-6--6--6-6-6--9---9--9--9---9---9--9--9---9---9--9--9--|
E|-----------------------------------------------------------------------|


Riff 1 X4


e|-----------------------------------------------------------------------|
B|-----------------------------------------------------------------------|
G|8--8-8-8--8--8-8-8--8--8-8-8--11--11-11-11--11--11-11-11--11--11-11-11-|
D|8--8-8-8--8--8-8-8--8--8-8-8--11--11-11-11--11--11-11-11--11--11-11-11-|
A|6--6-6-6--6--6-6-6--6--6-6-6--9---9--9--9---9---9--9--9---9---9--9--9--|
E|-----------------------------------------------------------------------|


e|-----------------------------------------------------------------------|
B|-----------------------------------------------------------------------|
G|4--4-4-4--4--4-4-4--4--4-4-4--15--15-15-15--15--15-15-15--15--15-15-15-|
D|4--4-4-4--4--4-4-4--4--4-4-4--15--15-15-15--15--15-15-15--15--15-15-15-|
A|2--2-2-2--2--2-2-2--2--2-2-2--13--13-13-13--13--13-13-13--13--13-13-13-|
E|-----------------------------------------------------------------------|


Riff 2 X1
Esta parte hagan lo lento

e|---------------------------------------------|
B|---------------------------------------------|
G|8---8---8---8---8---11---11---11---11---11---|
D|8---8---8---8---8---11---11---11---11---11---|
A|6---6---6---6---6---9----9----9----9----9----|
E|---------------------------------------------|



Riff 3 4X

e|-----------------------------------------------------------------------|
B|-----------------------------------------------------------------------|
G|8--8-8-8--8--8-8-8--8--8-8-8--11--11-11-11--11--11-11-11--11--11-11-11-|
D|8--8-8-8--8--8-8-8--8--8-8-8--11--11-11-11--11--11-11-11--11--11-11-11-|
A|6--6-6-6--6--6-6-6--6--6-6-6--9---9--9--9---9---9--9--9---9---9--9--9--|
E|-----------------------------------------------------------------------|


e|-----------------------------------------------------------------------|
B|-----------------------------------------------------------------------|
G|4--4-4-4--4--4-4-4--4--4-4-4--15--15-15-15--15--15-15-15--15--15-15-15-|
D|4--4-4-4--4--4-4-4--4--4-4-4--15--15-15-15--15--15-15-15--15--15-15-15-|
A|2--2-2-2--2--2-2-2--2--2-2-2--13--13-13-13--13--13-13-13--13--13-13-13-|
E|-----------------------------------------------------------------------|


Riff opcional, Ocupen alternate picking en esta parte,  X4

e|----------------------------------------------------------------------|
B|----------------------------------------------------------------------|
G|11*------10*------13*------15*------10*------11*------8*------6*------|
D|----------------------------------------------------------------------|
A|----------------------------------------------------------------------|
E|----------------------------------------------------------------------|


Silencio entra la Guitarra haciendo Alternate picking X6 (al 6to compas esto sigue sonando)


e|14*------13*-----16*-----18*------16*---14*---13*--14*---11*----9*----|
B|----------------------------------------------------------------------|
G|----------------------------------------------------------------------|
D|----------------------------------------------------------------------|
A|----------------------------------------------------------------------|
E|----------------------------------------------------------------------|


Esta parte entra al 6to compas X4

e|----------------------------------------------------------------------|
B|----------------------------------------------------------------------|
G|11*------10*------13*------15*------10*------11*------8*------6*------|
D|----------------------------------------------------------------------|
A|----------------------------------------------------------------------|
E|----------------------------------------------------------------------|


Ahora el Riff 3  va junto con la parte del alternate picking 4X

e|-----------------------------------------------------------------------|
B|-----------------------------------------------------------------------|
G|8--8-8-8--8--8-8-8--8--8-8-8--11--11-11-11--11--11-11-11--11--11-11-11-|
D|8--8-8-8--8--8-8-8--8--8-8-8--11--11-11-11--11--11-11-11--11--11-11-11-|
A|6--6-6-6--6--6-6-6--6--6-6-6--9---9--9--9---9---9--9--9---9---9--9--9--|
E|-----------------------------------------------------------------------|


e|-----------------------------------------------------------------------|
B|-----------------------------------------------------------------------|
G|4--4-4-4--4--4-4-4--4--4-4-4--15--15-15-15--15--15-15-15--15--15-15-15-|
D|4--4-4-4--4--4-4-4--4--4-4-4--15--15-15-15--15--15-15-15--15--15-15-15-|
A|2--2-2-2--2--2-2-2--2--2-2-2--13--13-13-13--13--13-13-13--13--13-13-13-|
E|-----------------------------------------------------------------------|


e|----------------------------------------------------------------------|
B|----------------------------------------------------------------------|
G|11*------10*------13*----15*--13*-----11*--10*---11*----8*-----6*-----|
D|----------------------------------------------------------------------|
A|----------------------------------------------------------------------|
E|----------------------------------------------------------------------|



Silencio...


Riff 3 Y parte del Alternate Picking  X4 

e|-----------------------------------------------------------------------|
B|-----------------------------------------------------------------------|
G|8--8-8-8--8--8-8-8--8--8-8-8--11--11-11-11--11--11-11-11--11--11-11-11-|
D|8--8-8-8--8--8-8-8--8--8-8-8--11--11-11-11--11--11-11-11--11--11-11-11-|
A|6--6-6-6--6--6-6-6--6--6-6-6--9---9--9--9---9---9--9--9---9---9--9--9--|
E|-----------------------------------------------------------------------|


e|-----------------------------------------------------------------------|
B|-----------------------------------------------------------------------|
G|4--4-4-4--4--4-4-4--4--4-4-4--15--15-15-15--15--15-15-15--15--15-15-15-|
D|4--4-4-4--4--4-4-4--4--4-4-4--15--15-15-15--15--15-15-15--15--15-15-15-|
A|2--2-2-2--2--2-2-2--2--2-2-2--13--13-13-13--13--13-13-13--13--13-13-13-|
E|-----------------------------------------------------------------------|


e|14*------13*-----16*-----18*------16*---14*---13*--14*---11*----9*----|
B|----------------------------------------------------------------------|
G|----------------------------------------------------------------------|
D|----------------------------------------------------------------------|
A|----------------------------------------------------------------------|
E|----------------------------------------------------------------------|


Fin... 
Добавлено: 06.12.2013
Другие материалы по этой песне:
  • Аккорды и текст

Страница создана 06.12.2013
http://primanota.ru/hypomanie/you-never-gazed-at-the-clouds-chords.htm
Привет, Гость.
Предлагаем пройти революционный курс по гитаре.
Подарок от PrimaNota.Ru, забирай!