PrimaNota.ru - самый крупный в мире бесплатный архив песенных текстов, аккордов, табулатур и нот


Hypocrisy - The Fourth Dimension - текст песни, таба, видео

Регистрация Запомнить меня
Войти через:  Facebook Google Twitter Vk Yandex Mail.ru

Hypocrisy - The Fourth Dimension - текст песни, таба, видео

Печатать
Просмотров: 155
                         HYPOCRISY - THE FOURTH DIMENSION
                      From the Album - THE FOURTH DIMENSION
                          Copyright - NUCLEAR BLAST 1994
                              Version 2.0 - May 2002


Transcribed by: James Williams (Inverted)
Solo By: (Inverted) and David Williams (Warlock)

For Questions, Comments, Newest Version, or Corrections contact
Inverted: at Inverted_one@hotmail.com

Check Out Death8699.com Metaltabs.com or dsrmusic.com for More
Transcriptions:http://www.Death8699.com http://www.Metaltabs.com


.  - palm mute           /  - slide up to
\  - slide down to       ~  - vibrato
h  - hammer on           b  - Bend
p  - pull off            Suffixes for bend
t  - tap                 f  - full bend    h - half bend
ph - pinched harmonic    q  - quarter bend t - tap bend
*  - see comment         ^  - Hold bend    r release bend
x  - Stuccatto           ~  - vibrato bend
,  - slight palm mute    () - ghost note, sustained note
"  - tremolo note        <> - Trill

Tunning "B"E"A"D"F#"B"

Intro (Clean W/Acoustic Simulater) 
|-----------------------|--------------------------| 
|-----------------------|--------------------------| 
|-----------------------|--------------------------| 
|-----2--3--2--0-h2--2--|-----2--3--2--------------| 
|--0--------------------|--0--------------2-----2--| 
|-----------------------|--------------0-----4-----| 
|                                                  | 
|-----------------------|--------------------------| 
|-----------------------|--------------------------| 
|-----------------------|--------------------------| 
|-----2--3--2--0-h2--2--|-----2--3--2--------------| 
|--0--------------------|--0--------------2-----2--| 
|-----------------------|--------------3-----0-----| 


Riff 1-A                                     GTR I 
|-----------------------|--------------------------| 
|-----------------------|--------------------------| 
|-----------------------|--------------------------| 
|-----2--3--2--0-h2--2~-|-----2--3-3p2-------------| 
|--0--------------------|--0--------------2-----2--| 
|-----------------------|--------------0-----4-----| 
|                                                  | 
|-----------------------|--------------------------| 
|-----------------------|--------------------------| 
|-----------------------|--------------------------| 
|-----2--3--2--0-h2--2~-|-----2--3-3p2-------------| 
|--0--------------------|--0--------------2-----2--| 
|-----------------------|--------------3-----0-----| 

                                            GTR II 
|-----------------------|--------------------------| 
|-----------------------|--------------------------| 
|-----------------------|--------------------------| 
|--2--------------------|--------------------------| 
|--0--------------------|--------------2-----6-----| 
|-----------------------|--------------0-----4-----| 
|                                                  | 
|-----------------------|--------------------------| 
|-----------------------|--------------------------| 
|-----------------------|--------------------------| 
|--2--------------------|--------------------------| 
|--0--------------------|--------------5-----2-----| 
|-----------------------|--------------3-----0-----| 


Riff 1-B                                     GTR I 
|-----------------------|--------------------------| 
|-----------------------|--------------------------| 
|-----------------------|--------------------------| 
|-----2--3--2--0-h2--2~-|-----2--3-3p2-------------| 
|--0--------------------|--0--------------2-----2--| 
|-----------------------|--------------0-----4-----| 
|                                                  | 
|-----------------------|--------------------------| 
|-----------------------|--------------------------| 
|-----------------------|--------------------------| 
|-----2--3--2--0-h2--2~-|-----2--3-3p2-------------| 
|--0--------------------|--0--------------2-----2--| 
|-----------------------|--------------3-----0-----| 

                                            GTR II 
|-----------------------|--------------------------| 
|-----------------------|--------------------------| 
|-----------------------|--------------------------| 
|--2--------------------|--2-----------------------| 
|--0--------------------|--0--------------2-----6--| 
|-----------------------|--------------0-----4-----| 
|                                                  | 
|-----------------------|--------------------------| 
|-----------------------|--------------------------| 
|-----------------------|--------------------------| 
|--2--------------------|--2-----------------------| 
|--0--------------------|--0--------------5-----2--| 
|-----------------------|--------------3-----0-----| 


Riff 2                                                             GTR I 
|------------------------------|------------------------------|---------| 
|------------------------------|------------------------------|---------| 
|--6---7---4---6---2---4---1~--|--6---7---4---6---2-------6~--|--6-\-7--| 
|------------------------------|----------------------4-------|---------| 
|------------------------------|------------------------------|---------| 
|------------------------------|------------------------------|---------| 

                                                                 GTR II 
|------------------------------|------------------------------|---------| 
|------------------------------|------------------------------|---------| 
|------------------------------|------------------------------|---------| 
|------------------------------|------------------------------|---------| 
|--4---5---2---4---0---2-------|--4---5---2---4---0-------4~--|--4-\-5--| 
|--------------------------4~--|----------------------2-------|---------| 


Riff 3 
|-----------------------------------------------------| 
|-----------------------------------------------------| 
|-----------------------------------------------------| 
|--7------6------6--------6-\-7---7------6------6-----| 
|--5------6------4--------4-\-5---5------6------4-----| 
|--5------4------4--------4-\-5---5------4------4-----| 


Riff 4 
|-----------------------------------------------| 
|-----------------------------------------------| 
|-----------------------------------------------| 
|--2----2---4---5----5----3---3---3/2---2----2--| 
|--0----0---2---3----3----3---3---3/2---2----2--| 
|-----------2---3----3----1---1---1/0---0----0--| 
|                                               | 
|-----------------------------------------------| 
|-----------------------------------------------| 
|-----------------------------------------------| 
|--2----2---4---5----5----7----7----2---3----5--| 
|--0----0---2---3----3----5----5----2---3----5--| 
|-----------2---3----3----5----5----0---1----3--| 


Riff 5                                                            GTR I 
|------------------------------------|----------------------------------| 
|------7-------6---------------------|------7-------6-------------------| 
|----6---6---5---5------2---2---2----|----6---6---5---5--9~-11~-12~-14~-| 
|--4-------3----------2---2---2---2--|--4-------3-----------------------|
|-------------------0----------------|----------------------------------|
|------------------------------------|----------------------------------| 
   . . . . . . . .  . . . . . . . .     . . . . . . . .
                                                                  GTR II 
|------------------------------------|----------------------------------| 
|------------------------------------|----------------------------------| 
|------------------------------------|----------------------------------| 
|---------------5-4-2----------------|----------------------------------| 
|--4-------3----3-2-0----------------|--4-------3--------7~--9~-10~-12~-|
|--2-------1-------------------------|--2-------1-----------------------| 
                . . 

Riff 5-A (Solo Riff)
|------------------------------------|----------------------------------| 
|------------------------------------|----------------------------------| 
|------------------------------------|----------------------------------| 
|---------------5-4-2----------------|----------------------------------| 
|--4-------3----3-2-0----------------|--4-------3--------7~--9~-10~-12~-|
|--2-------1-------------------------|--2-------1-----------------------| 
                . . 

Solo 
|---------------------------------------------------------------------- 
|---------------------------------------------------------------------- 
|----------------------12--14---12h14p12------------------------------- 
|--------------12--14---------------------12--12h14~---14-12----------- 
|--12--14--15------------------------------------------------15-14-12-- 
|---------------------------------------------------------------------- 


-17""19""20""22""20""22""22^--22-20-19h20p19--17--15--17--20p19p17-t22p 
-------------------------bf-------------------------------------------- 
----------------------------------------------------------------------- 
----------------------------------------------------------------------- 
----------------------------------------------------------------------- 
----------------------------------------------------------------------- 


20p19p17-t22p20p19p17-t22p20p19p17-t22p20p19p17-t22p20p19p17-t22p20p19p
----------------------------------------------------------------------- 
----------------------------------------------------------------------- 
----------------------------------------------------------------------- 
----------------------------------------------------------------------- 
----------------------------------------------------------------------- 


17-t22p20p19p17--17--15---------------------------------------------- 
-------------------------17--15--13------------------------------------- 
-------------------------------------16--14~/---------------------------- 
----------------------------------------------------------------------- 
--------------------------------------------------------12"------------ 
-----------------------------------------------12"14"15"---15"14"12"14" 
                                               ........................ 

----------------------------------------------------------------------- 
-------------------------------------------------------------------14^- 
---------------------------------------------------------------12"-bf--
------------------------12"---------------12"14"16"14"12"14"16"--------
---12"14"15"14"12"14"15"---15"14"12"14"15"----------------------------- 
15"-------------------------------------------------------------------- 
.................................................................. 

-----12-12------------------| 
-14^-12-12-14^-13-12--------| 
-bf--------bf--------14~~/--| 
----------------------------| 
----------------------------| 
----------------------------| 


LYRICS TRANSLATED BY: INVERTED 
SPECIAL THANKS TO MY MOM

As my soul leaves my body 
I'm freed, take me to hell 
To explore the unknown 
For a vision or view of my life 

This presence, rips at my soul 
As I see my destiny 
All panic goes through my mind 
As I see myself slowly die 

Wake me up from this nightmare 
I couldn't make it stop! 
Get me back in my body 
I'll never, never leave it again 
Never trust your own instinct, on a journey to hell! 

I can see my body lying, Deceased... 
I try to reach out, and grab me, and wake myself up. 
I CAN'T !!! 

I feel no pity, for all that died 
'Cause I'm stuck here, in hell... 

Wake me up from this nightmare 
I couldn't make it stop! 
Get me back in my body 
I'll never, never leave it again 
Never trust your own instinct, on a journey to hell! 

[Solo] 

Wake me up from this nightmare 
I couldn't make it stop! 
Get me back in my body 
I'll never never leave it again 
Never trust your own instinct, on a journey to hell! 

I'M FREED, TAKE ME TO HELL!!! 

Check out my other tabs by: Deicide, Obituary, Hypocrisy,
Grave, Catastrophic, Six Feet Under, Incantation and Death.
Добавлено: 09.03.2012
Другие материалы по этой песне:

Страница создана 09.03.2012
http://primanota.ru/hypocrisy/the-fourth-dimension-chords.htm
Привет, Гость.
Предлагаем пройти революционный курс по гитаре.
Подарок от PrimaNota.Ru, забирай!