PrimaNota.ru - самый крупный в мире бесплатный архив песенных текстов, аккордов, табулатур и нот


Hypocrisy - Mental Emotions - аккорды и текст, таба, видео

Регистрация Запомнить меня
Войти через:  Facebook Google Twitter Vk Yandex Mail.ru

Hypocrisy - Mental Emotions - аккорды и текст, таба, видео

Печатать
Просмотров: 125
Mental Emotions
Hypocrisy
 
 / The following is the author's own interpretation of the song, to be used -
 / for studying or private use only                       -
 
 
 

  
 transcribed by: Eugen Pagany (AUT)
                 Gernot Eller (AUT)  July'97

 HYPOCRISY: MENTAL EMOTIONS (version 1.0)

 tune down to C (2 steps down!)

	 <  >...triplet
	 @...screech this note (you have to hit the string 
	     in a certain way to make this screeching noise)


	[after the prelude1 play riff1 six times]

	  PRELUDE1	  RIFF1
	||----||	||----------|-----@----||
	||----||	||----------|----------||
	||----||	||----------|----------||
	||2---||	||------2---|------2---||
	||2---||	||2320202---|2320202---||
	||0---||	||------0---|------0---||
			  < >< >     < >< >

	[play the prelude2 and then riff2 six times]

	  PRELUDE2
	||----------------|----------------||
	||----------------|----------------||
	||----------------|----------------||
	||----------------|----------------||
	||2---------------|2--fade------||
	||0---------------|0---out------||

	  RIFF2
	||----------------|----------------|----------------|----------------||
	||----------------|----------------|----------------|----------------||
	||----------------|----------------|----------------|----------------||
	||--------4-5-4---|--------2-3-2---|--------4-5-4---|5---5---7---7---||
	||2-2---2-2-3-2---|2-2---2-0-1-0---|2-2---2-2-3-2---|3---3---5---5---||
	||0-0---0---------|0-0---0---------|0-0---0---------|----------------||

	[play riff3: g1;
	 play riff3: g1 + g2;
	 play riff3: g1, six times;]

	  RIFF3 guitar1
	||----------------|----------------|----------------|----------------||
	||----------------|----------------|----------------|----------------||
	||----------------|----------------|----------------|----------------||
	||----------------|----------------|----------------|----------------||
	||--------77775555|--------22223333|--------77775555|0000000022222222||
	||00000000--------|00000000--------|00000000--------|----------------||
	|       guitar2
	||----------------|----------------|----------------|----------------||
	||----------------|----------------|----------------|----------------||
	||----------------|----------------|----------------|2-------4-------||
	||2---------------|2---------------|2---------------|2-------4-------||
	||2---------------|2---------------|2---------------|0-------2-------||
	||0---------------|0---------------|0---------------|----------------||

	[repeat riff2 four times]

	[play riff1 four times]

	[play riff3: g1;
	 play riff3: g1 + g2;
	 play riff3: g1, four times;]

	  END
	||----||
	||----||
	||----||
	||2---||
	||2---||
	||0---||

 If you have found one -of probably thousand- mistakes
 or if you know other Hypocrisy-tabs or lyrics, feel free
 to mail me or ask me for the latest version.
Добавлено: 01.01.2014
Другие материалы по этой песне:
  • Аккорды и текст

Страница создана 25.06.2012
http://primanota.ru/hypocrisy/mental-emotions-chords.htm
Привет, Гость.
Предлагаем пройти революционный курс по гитаре.
Подарок от PrimaNota.Ru, забирай!