PrimaNota.ru - самый крупный в мире бесплатный архив песенных текстов, аккордов, табулатур и нот


Hypnogaja - They Dont Care - аккорды и текст, таба, видео

Регистрация Запомнить меня
Войти через:  Facebook Google Twitter Vk Yandex Mail.ru

Hypnogaja - They Dont Care - аккорды и текст, таба, видео

Печатать
Просмотров: 2576
They Dont Care
Hypnogaja
Hi everybody, since nobody has tabbed it yet, I decided to make a try; not the best tab 
but is always a beginning...
 
------------------------------------|----------------------------------|
------------------------------------|----------------------------------|
------------------------------------|----------------------------------|
-----4-----0-----4-----0------------|-----5-----0-----5-----0----------|
--2-----2-----2-----2-----2--2------|--2-----2-----2-----2-----2--2----|
------------------------------------|----------------------------------|

------------------------------------|----------------------------------|
------------------------------------|----------------------------------|
------------------------------------|----------------------------------|
-----4-----0-----4-----0-----4------|--4-4---4-4--2-2---2-2------------|
--2-----2-----2-----2-----2--2------|--2-2---2-2--2-2---2-2--2---------|
------------------------------------|----------------------------------|

...and that's it. Very poor tab, hope it helps anyway


tabbed by jasper

just like my misery tab this one is done by ear,,,,and memory.

ive done this by memory, made it in guitar pro a long while ago so its probably 
wrong on some points but it'll give ya a general idea.

!!dont blame me if it doesnt sound right when played!!

INTRO(bass only)

VERSE
E|----------------|----------------|----------------|----------------|
A|----------------|----------------|----------------|----------------|
D|----------------|----------------|----------------|----------------|
G|----0-----0344--|----0----04-2-2-|----0------0344-|----0----04-2-2-|
B|222---22-2------|222---22--------|222---22-2------|222---22--------|
e|----------------|----------------|----------------|----------------|x2

PRE-CHORUS
E|----------------|----------------|----------------|----------------|
A|----------------|----------------|----------------|----------------|
D|----------------|----------------|----------------|----------------|
G|222-5-22--------|222-5-22--------|222-5-22--------|222-5-22----12\-|
B|000-3-00--------|000-3-00--------|000-3-00--------|000-3-00----12\-|
e|----------------|----------------|----------------|----------------|x2

CHORUS
E|----------------|----------------|----------------|----------------|
A|----------------|----------------|----------------|----------------|
D|----------------|----------------|----------------|----------------|
G|222-5-22-22-----|222-5-22-25-----|222-5-22-22-----|7777777755555555|
B|000-3-00-00-5-5-|000-3-00-03-5-5-|000-3-00-00-5-5-|5555555533333333|
e|------------3-3-|------------3-3-|------------3-3-|----------------|x2

VERSE
PRE-CHORUS
CHORUS x2

Bridge
E|----------------|----------------|----------------|----------------|
A|----------------|----------------|----------------|----------------|
D|----------------|----------------|----------------|----------------|
G|----------------|4-4444446-666664|----------------|4-4444446-666666|
B|5-5555557-777777|2-2222224-444442|5-5555557-777777|2-2222224-444444|
e|3-3333335-555555|----------------|3-3333335-555555|----------------|Muted 2x

bridge un muted 2x

bass intro turns into outro.
Добавлено: 07.02.2014
Вам также может быть интересно:
Другие материалы по этой песне:
  • Аккорды и текст

Страница создана 06.05.2012
http://primanota.ru/hypnogaja/they-dont-care-chords.htm
Привет, Гость.
Предлагаем пройти революционный курс по гитаре.
Подарок от PrimaNota.Ru, забирай!