PrimaNota.ru - самый крупный в мире бесплатный архив песенных текстов, аккордов, табулатур и нот


Hyper Potions And Subtact - Adventures - таба, видео

Регистрация Запомнить меня
Войти через:  Facebook Google Twitter Vk Yandex Mail.ru

Hyper Potions And Subtact - Adventures - таба, видео

Печатать
Просмотров: 68
Уроки эстрадного вокала в Санкт-Петербурге
-------------------------------------------------------------------------------
                             SONG NAME - Band Name
-------------------------------------------------------------------------------
Tabbed by:LUCAS MARS
E-mail:
Hyper Potions & Subtact - Adventures Guitar cover 
Tuning:C
MINUTE 0:11 to 0:47 PART1
e|---------------------------------------------------------------------------|
B|---------------------------------12p10--10h12/14--12---10-10h12------------|
G|------------------------9--------------------------------------------------|
D|-11---14--9-----7h9/11-----11----------------------------------------------|
A|---------------------------------------------------------------------------|
E|---------------------------------------------------------------------------|

e|---------------------------------------------------------------------------|
B|--10---12----14---12------10----9h10r9--------------10h12-17p12p10/9-------|
G|----------------------9-----------------11---------------------------------|
D|----------------------------------------------9----------------------------|
A|---------------------------------------------------------------------------|
E|---------------------------------------------------------------------------|
MINUTE 1:20 to 2:00 PART2
e|---------------------------------------------------------------------------|
B|--------10-12-10--12/14--12-10-12-12/14-10---------------------------------|
G|---------------------------------------------------------------------------|
D|---14----------------------------------------------------------------------|
A|---------------------------------------------------------------------------|
E|---------------------------------------------------------------------------|

e|---------------------------------------------------------------------------|
B|--------10-12-10-12/14-12-10-12--12/15-14----------------------------------|
G|---------------------------------------------------------------------------|
D|---14----------------------------------------------------------------------|
A|---------------------------------------------------------------------------|
E|---------------------------------------------------------------------------|

e|---------------------------------------------------------------------------|
B|---17-15-14-12--12h14-12h14-12-10-12-12h14-12h14-10-----12h14-12-10-12-----|
G|---------------------------------------------------------------------------|
D|-----------------------------------------------------14--------------------|
A|---------------------------------------------------------------------------|
E|---------------------------------------------------------------------------|

e|---------------------21----------------------------------------------------|
B|--12h14-12h14---17---------------------------------------------------------|
G|---------------------------------------------------------------------------|
D|---------------------------------------------------------------------------|
A|---------------------------------------------------------------------------|
E|---------------------------------------------------------------------------|
PART3 minute 2:25 to 2:52
e|------------------------------19--17--17-19-21-19-17-17h19-----------------|
B|--14-17-12----12--14---17--14----------------------------------------------|
G|-----------14--------------------------------------------------------------|
D|---------------------------------------------------------------------------|
A|---------------------------------------------------------------------------|
E|---------------------------------------------------------------------------|

e|17-19-21-19--17-16h17r16--------17h19-24p19p17\16-17\----------------------|
B|-----------17------------17------------------------------------------------|
G|----------------------------16---------------------------------------------|
D|---------------------------------------------------------------------------|
A|---------------------------------------------------------------------------|
E|---------------------------------------------------------------------------|


************************************

| /   slide up
| \   slide down
| h   hammer-on
| p   pull-off
| ~   vibrato
| +   harmonic
| x   Mute note
| b   Bend
| pb  Pre-bend
| br  Bend release
| pbr Pre-bend release
| brb Bend release bend

************************************
Добавлено: 06.11.2015
Другие материалы по этой песне:
  • Аккорды и текст

Страница создана 06.11.2015
http://primanota.ru/hyper-potions-and-subtact/adventures-chords.htm
Привет, Гость.
Предлагаем пройти революционный курс по гитаре.
Подарок от PrimaNota.Ru, забирай!