PrimaNota.ru - самый крупный в мире бесплатный архив песенных текстов, аккордов, табулатур и нот


Hyde - The Other Side - текст песни, таба, видео

Регистрация Запомнить меня
Войти через:  Facebook Google Twitter Vk Yandex Mail.ru

Hyde - The Other Side - текст песни, таба, видео

Печатать
Просмотров: 153
HYDE - THE OTHER SIDE TAB:

Intro:

e|----------------------|
B|----------------------|
G|--4--6-6--7-7--6--6---|
D|--4--6-6--6-6--6--6---|
A|--4--4-4--4-4--4--4---|
E|----------------------| (7x)

e|-------------------|
B|-------------------|
G|--4--6-6--7--6-6---|
D|--4--6-6--6--6-6---|
A|--4--4-4--4--4-4---|
E|-------------------|


Chorus 1:

e|-------------------------|
B|-------------------------|
G|-------------------------|
D|-5----4----/7----5---4---|
A|-5----4----/7----5---4---|
E|-3----2----/5----3---2---| (2x)


e|--------------------|
B|--------------------|
G|--------------------|
D|-5--4----/7--7--5---|
A|-5--4----/7--7--5---|
E|-3--2----/5--5--3---|


Verses:

e|----------------|
B|--5-4---6-5-6-5-|
G|------4---------|
D|----------------|
A|----------------|
E|----------------|


e|----5---4-------|
B|--3---4---4-----|
G|----------------|
D|----------------|
A|----------------|
E|----------------| (7x)


e|----5---7-7-7-7-7--|
B|--3---4------------|
G|-------------------|
D|-------------------|
A|-------------------|
E|-------------------|


Chorus 2:

e|-------------------------|
B|-------------------------|
G|-------------------------|
D|-5----4----/7----5---4---|
A|-5----4----/7----5---4---|
E|-3----2----/5----3---2---| (3x)


-Repeat Intro-


-Repeat Verses-


Chorus 3 (This part isn't very good yet, sorry, I still have to find how it is done. But 
better then not having any tab, isn't it? xP):

e|-------------------------|
B|-------------------------|
G|-------------------------|
D|-5----4----/7----5---4---|
A|-5----4----/7----5---4---|
E|-3----2----/5----3---2---| (4x)

e|--?--|
B|--?--|
G|--?--|
D|--?--|
A|--?--|
E|--?--|


-Repeat Intro-


Tab by: WingsMark
Добавлено: 19.03.2012
Другие материалы по этой песне:
  • Аккорды и текст

Страница создана 17.03.2012
http://primanota.ru/hyde/the-other-side-chords.htm
Привет, Гость.
Предлагаем пройти революционный курс по гитаре.
Подарок от PrimaNota.Ru, забирай!