PrimaNota.ru - самый крупный в мире бесплатный архив песенных текстов, аккордов, табулатур и нот


Hyde - Redrum - таба, видео

Регистрация Запомнить меня
Войти через:  Facebook Google Twitter Vk Yandex Mail.ru

Hyde - Redrum - таба, видео

Печатать
Просмотров: 134
VAMPS - REDRUM TAB
(Theres no "VAMPS" band [vampsxxx.com] on "Ultimate-Guitar" so I'm posting the tab at "HYDE")

TUNE: Drop D
With Distortion


Intro:

e|---------------------------------|
B|---------------------------------|
G|---------------------------------|
D|-0--7-8-0--5-7-0--3-5-0--1-1-1-1-|
A|-0--7-8-0--5-7-0--3-5-0--1-1-1-1-|
D|-0--7-8-0--5-7-0--3-5-0--1-1-1-1-|4x+4x

Verses [HYDE's Guitar] Clean Sound:
(Here you can also play the Intro PALM MUTED [KAZ's Guitar].Play it 4 times but at the 
time unmute the 1st fret)

e|---------|
B|-----2---|
G|-2-------|
D|---2-----|
A|---------|
D|---------|7x


e|-----------|
B|-----------|
G|-----------|
D|---1-1-1-1-|
A|---1-1-1-1-|
D|---1-1-1-1-|

Pre-Chorus:
(Play this instead of the 1st fret from the 4th time Intro)
e|----------|
B|----------|
G|--4/5-5-5-|
D|----------|
A|--2/3-3-3-|
D|----------|

1st Chorus 4x:

e|-------------|
B|-7--7--7-7-7-|
G|-7--7--7-7-7-|
D|-7--7--7-7-7-|
A|-------------|
D|-------------|

e|--------------|
B|--------------|
G|--------------|
D|-8--8--8-8-8/-|
A|-8--8--8-8-8/-|
D|-8--8--8-8-8/-|

e|-------------------|
B|-------------------|
G|-------------------|
D|-10--10--10-10-10/-|
A|-10--10--10-10-10/-|
D|-10--10--10-10-10/-|

e|------------------|
B|------------------|
G|------------------|
D|-11--11--11-11-11-|
A|-11--11--11-11-11-|
D|-11--11--11-11-11-|


I will update the tab later with the KAZ's Guitar part that starts at "01:38". For now 
HYDE's Guitar (the "Intro" again).
-Do a Pick Scratch at "Redrum M I'"-

2nd Chorus 4x:
e|-------------|
B|-7-----7-----|
G|-7-----7-----|
D|-7-----7-----|
A|-------------|
D|-------------|

e|--------------|
B|--------------|
G|--------------|
D|-8-------8----|
A|-8-------8----|
D|-8-------8----|

e|--------------|
B|--------------|
G|--------------|
D|-10------10---|
A|-10------10---|
D|-10------10---|

e|--------------|
B|--------------|
G|--------------|
D|-11------11---|
A|-11------11---|
D|-11------11---|

Bridge:
e|--------------------------|
B|--------------------------|
G|--------------------------|
D|-3--5-5--3-5-3-5-3-5-5--5-|
A|-3--5-5--3-5-3-5-3-5-5--5-|
D|-3--5-5--3-5-3-5-3-5-5--5-|7x

e|-------------------|
B|-------------------|
G|-------------------|
D|-3-5/9/3/10/5/11/5-|
A|-3-5/9/3/10/5/11/5-|
D|-3-5/9/3/10/5/11/5-|

Tab by: MARK
Добавлено: 22.07.2012
Другие материалы по этой песне:
  • Аккорды и текст

Страница создана 22.07.2012
http://primanota.ru/hyde/redrum-chords.htm
Привет, Гость.
Предлагаем пройти революционный курс по гитаре.
Подарок от PrimaNota.Ru, забирай!