PrimaNota.ru - самый крупный в мире бесплатный архив песенных текстов, аккордов, табулатур и нот


Hyde - Prayer - текст песни, таба, бас-таба, видео

Регистрация Запомнить меня
Войти через:  Facebook Google Twitter Vk Yandex Mail.ru

Hyde - Prayer - текст песни, таба, бас-таба, видео

Печатать
Просмотров: 220
HYDE - PRAYER TAB:
(Follow the tab with this Youtube Video Cover: http://www.youtube.com/watch?v=MX-HWZa1AIo )


Intro (2x):

e|-------|
B|-------|
G|-2-3-2-|
D|-2-2-2-|  
A|-------|
E|-------|


Verses:

e|---------------------------------|
B|---------------------------------|
G|---------------------------------|
D|-2-3-2----5-3-5----7-5-7----7-8--|  
A|-2-2-2----5-5-5----7-7-7----7-7--|
E|-0-0-0----3-3-3----5-5-5----5-5--|


e|-----------------------------------------|
B|-----------------------------------------|
G|-----------------------------------2-3-2-|
D|-2-3-2----5-3-5----7-5-7----7-8----2-2-2-|  
A|-2-2-2----5-5-5----7-7-7----7-7----------|
E|-0-0-0----3-3-3----5-5-5----5-5----------|


e|----------------------------------|
B|----------------------------------|
G|----------------------------2-3-2-|
D|-2-3-2----5-3-5----7-5-7----2-2-2-|  
A|-2-2-2----5-5-5----7-7-7----------|
E|-0-0-0----3-3-3----5-5-5----------|


e|-------------------------|
B|-------------------------|
G|-------------------------|
D|-2-3-2----5-3-5----7-5-7-|  
A|-2-2-2----5-5-5----7-7-7-|
E|-0-0-0----3-3-3----5-5-5-|


Chorus:

e|--------------------|
B|--------------------|
G|--------------------|
D|-10----8----6----8--|  
A|-10----8----6----8--|
E|-8-----6----4----6--|


-Repeat Verses-


-Repeat Chorus-



Solo:

e|-------|
B|-------|
G|-2-3-2-|
D|-2-2-2-|  
A|-------|
E|-------| (4x)


e|---------------------------------------------------------------------------|
B|---------------------------------------------------------------------------|
G|-/8--8--/10--10--/12--/16--16--/11--11--/16--16--/14--14--/13--/12--/14--14|
D|---------------------------------------------------------------------------|  
A|---------------------------------------------------------------------------|
E|---------------------------------------------------------------------------|


e|---------------------------------------------------------------------------|
B|---------------------------------------------------------------------------|
G|-/8--8--/10--10--/12--/16--16--/11--11--/16--16--/14--14--/13--/16----16---|
D|---------------------------------------------------------------------------|  
A|---------------------------------------------------------------------------|
E|---------------------------------------------------------------------------|


e|-15--14--15--14--15--14--15--15--15-|
B|------------------------------------|
G|------------------------------------|
D|------------------------------------|  
A|------------------------------------|
E|------------------------------------|


-Repeat Chorus-


-Repeat Verses-




Tab by: WingsMark
Добавлено: 03.04.2012
Другие материалы по этой песне:
  • Аккорды и текст

Страница создана 13.03.2012
http://primanota.ru/hyde/prayer-chords.htm
Привет, Гость.
Предлагаем пройти революционный курс по гитаре.
Подарок от PrimaNota.Ru, забирай!