PrimaNota.ru - самый крупный в мире бесплатный архив песенных текстов, аккордов, табулатур и нот


Hyde - I Can Feel - текст песни, таба, видео

Регистрация Запомнить меня
Войти через:  Facebook Google Twitter Vk Yandex Mail.ru

Hyde - I Can Feel - текст песни, таба, видео

Печатать
Просмотров: 258
HYDE - I CAN FEEL (FAITH Album)

-KAZ's Guitar (with distortion)

Intro:
e|------------------10--|
B|--5-7-5-3/5-7-5-7-----|
G|----------------------|
D|----------------------|
A|----------------------|
E|----------------------|3x

e|----15-14------------|
B|-8--------15-13-12^--|
G|---------------------|
D|---------------------|
A|---------------------|
E|---------------------|

Verses:
e|------------------10--|
B|--5-7-5-3/5-7-5-7-----|
G|----------------------|
D|----------------------|
A|----------------------|
E|----------------------|3x

e|----15-14-------------14--(14 [7x] delay)-|
B|-8--------15-13-12^-----------------------|
G|------------------------------------------|
D|------------------------------------------|
A|------------------------------------------|
E|------------------------------------------|

e|------------------10--|
B|--5-7-5-3/5-7-5-7-----|
G|----------------------|
D|----------------------|
A|----------------------|
E|----------------------|5x

e|------------------15-14--|
B|--5-7-5-3/5-7-5-7--------|
G|-------------------------|
D|-------------------------|
A|-------------------------|
E|-------------------------|

Chorus 4x:
e|-----------------|
B|-----------------|
G|-----------------|
D|-11--12/19-19-19-|
A|-9---10/17-17-17-|
E|-----------------|3x

e|-------------|
B|-------------|
G|-------------|
D|-17-16-12-11-|
A|-15-14-10-9--|
E|-------------|


-Repeat Intro-


Verses:
e|------------------10--|
B|--5-7-5-3/5-7-5-7-----|
G|----------------------|
D|----------------------|
A|----------------------|
E|----------------------|3x

e|----15-14-17-19-17-15-14-14--(14 [7x] delay)-|
B|-8-------------------------------------------|
G|---------------------------------------------|
D|---------------------------------------------|
A|---------------------------------------------|
E|---------------------------------------------|

e|------------------10--|
B|--5-7-5-3/5-7-5-7-----|
G|----------------------|
D|----------------------|
A|----------------------|
E|----------------------|5x

e|------------------15-14--|
B|--5-7-5-3/5-7-5-7--------|
G|-------------------------|
D|-------------------------|
A|-------------------------|
E|-------------------------|

-Repeat Chorus-


-Repeat Intro 2x-



Other Parts:
-HYDE's Guitar (with Distortion)
(On the verses at the part that is repeated 5 times, start doing the following at the 3nd time):

e|-------------|
B|-------------|
G|-------------|
D|-2--4--5--7--|
A|-2--4--5--7--|
E|-0--2--3--5--|4x


Tab by: MARK
Добавлено: 20.06.2012
Другие материалы по этой песне:
  • Аккорды и текст

Страница создана 24.05.2012
http://primanota.ru/hyde/i-can-feel-chords.htm
Привет, Гость.
Предлагаем пройти революционный курс по гитаре.
Подарок от PrimaNota.Ru, забирай!