PrimaNota.ru - самый крупный в мире бесплатный архив песенных текстов, аккордов, табулатур и нот


Husky - Historys Door - аккорды и текст, таба, видео

Регистрация Запомнить меня
Войти через:  Facebook Google Twitter Vk Yandex Mail.ru

Husky - Historys Door - аккорды и текст, таба, видео

Печатать
Просмотров: 146
Уроки эстрадного вокала в Санкт-Петербурге
Historys Door
Husky
G
Two hearts burning

On a hillside turning
                 Bm
Round the blazing sun
G
Fever burning

In her head that's turning
                 Bm
Round the things she's done
G
Free your heart

That is the hardest part,
                       Bm
He says, Your heart won't lie.

G, Bm, A, Bm
Ooooooohhhhhh

G, Bm, B
Ooooooohhhhhh

Riff:
e|-3--3/5--3--2--0----0--2--3--2--0------------------------------------------|
B|------------------3-----------------3--0-----------------------------------|
G|---------------------------------------------------------------------------|
D|---------------------------------------------------------------------------|
A|---------------------------------------------------------------------------|
E|---------------------------------------------------------------------------|

G                                        Bm
Find your hope forget your home
D*                                   Em
Heed that feeling in your bones
G                                                 Bm
For your heart knows you'll never win
D*                              Em
Until you're free from him


G
Don't look back

There is no use in wondering
       Bm
Just how or why
G
If you leave now

You might just make it home
                Bm
Before the morning light
A
Tired and poor
       Em                      G
You kneel at history's door

Tonight



Riff:
e|-3--3/5--3--2--0----0--2--3--2--0------------------------------------------|
B|------------------3-----------------3--0-----------------------------------|
G|---------------------------------------------------------------------------|
D|---------------------------------------------------------------------------|
A|---------------------------------------------------------------------------|
E|---------------------------------------------------------------------------|

e|-3--3/5--3--2--0----0--2--3--2--0------------------------------------------|
B|------------------3-----------------3/5------------------------------------|
G|---------------------------------------------------------------------------|
D|---------------------------------------------------------------------------|
A|---------------------------------------------------------------------------|
E|---------------------------------------------------------------------------|

G                                        Bm
Find your hope forget your home
D*                                   Em
Heed that feeling in your bones
G                                                 Bm
For your heart knows you'll never win
D*                              Em
Until you're free from him

x2


Em, Bm, G, D
Wooh ahhh ohhh

Em, Bm, G, D
Wooh ahhh ohhh

G, Bm , C, D, Em
Wooh ahhh ohhh



G                                        Bm
Find your hope forget your home
D*                                   Em
Heed that feeling in your bones
G                                                 Bm
For your heart knows you'll never win
D*                              Em
Until you're free from him

[x2]



Wooh ahhh ohhh 


note: D*= open C shape slid up 2 frets
Добавлено: 25.09.2013
Другие материалы по этой песне:
  • Аккорды и текст

Страница создана 25.09.2013
http://primanota.ru/husky/historys-door-chords.htm
Привет, Гость.
Предлагаем пройти революционный курс по гитаре.
Подарок от PrimaNota.Ru, забирай!