PrimaNota.ru - самый крупный в мире бесплатный архив песенных текстов, аккордов, табулатур и нот


Husky - Dark Sea - таба, видео

Регистрация Запомнить меня
Войти через:  Facebook Google Twitter Vk Yandex Mail.ru

Husky - Dark Sea - таба, видео

Печатать
Просмотров: 172
Уроки эстрадного вокала в Санкт-Петербурге
Artist: Husky   
Song: Dark Sea
Album: Forever So
Tuning: Standard
 
Intro (Palm Muted)
        
e |--0---0---0---0--0---0-----|
B |--0---0---0---0--0---0-----|
G |--0---0---0---0--0---2-----|
D |--2---2---2---2--2---2-----|
A |--2---2---2---2--3---0-----|         
E |--x---3---x---3--0---0-----|

Verse 1

(Palm Muted)
        
e |--0---0---0---0--0---0-----|
B |--0---0---0---0--0---0-----|
G |--0---0---0---0--0---2-----|
D |--2---2---2---2--2---2-----|
A |--2---2---2---2--3---0-----|         
E |--x---3---x---3--0---0-----|

Tell me you will wake me, in the night, when all is lost
Brother dont let it shake me up mornin' frost
If I could calm the storm that rages inside
I, I would surely try

Chorus (x2)

e |-0---3---0------|
B |-0---3---1------|
G |-0---0---2------|
D |-2---0---2------|
A |-2---2---0------|    
E |-0---3---0------|

Black night
Cold heart
You're alive
You can't feel it
My God
Lift him out
The dark sea
He is swimmin' in

Verse 2

We were once just children, staring up, at the stars
When did we grow older and come so very far?
We could leave this town, this country, this life
We could live to learn and learn and live without a start, trouble will strike

Chorus (x2)

Outro

e |-14--12--10--8--7--5--0---0---|
B |--------------------------0---|
G |--------------------------0---|
D |--------------------------2---|
A |--------------------------2---|      
E |--------------------------0---|
Добавлено: 15.08.2013
Другие материалы по этой песне:
  • Аккорды и текст

Страница создана 15.08.2013
http://primanota.ru/husky/dark-sea-chords.htm
Привет, Гость.
Предлагаем пройти революционный курс по гитаре.
Подарок от PrimaNota.Ru, забирай!