PrimaNota.ru - самый крупный в мире бесплатный архив песенных текстов, аккордов, табулатур и нот


Husking Bee - Walk - таба, видео

Регистрация Запомнить меня
Войти через:  Facebook Google Twitter Vk Yandex Mail.ru

Husking Bee - Walk - таба, видео

Печатать
Просмотров: 105
Hey this is my first tab so if i f**k up on some part
of the song please let me know. Anyway this band has
really inspired me alot.
They are really f**king good and i wish they would get
heard more in the usa. i mixed it up so if u want to play it in order then go to the 
of the page.


 ---------------------------------------------------
|++UPDATE++- My friend's dad figured out how to play |
|the intro so i've changed it to what it really is.  |
|Also i f@#ked up on the Chorus and the Bridge but   |
|i've fix it. Just let me know if some thing         |
| wrong thanks! I think it's 100% right |
|                                                    |
 ---------------------------------------------------


Husking Bee - Walk

Tuning Standard (EADGBe)

Intro

e--0-0-0-0-0-0-0-0-0--0-0-0-|
B--1-1-1-1-1-1-1-1-1--1-1-1-|
G--0-0-0-0-2-2-2-2-0--0-2-0-|
D--2-2-2-0-0-3-3-3-3--3-3-3-|
A--3-3-3-0-0-0-0-0-0--0-0-0-|
E---------------------------|


Verse

e----------------------------------------------|
B----------------------------------------------|
G--5555555-----------------5555555-44----------|
D--5555555-3333333-5555555-5555555-44----------|
A--3333333-3333333-5555555-3333333-22----------|
E----------1111111-3333333---------------------|

e----------------------------------------------|
B----------------------------------------------|
G----------55---------55---------55------------|
D--7777777-55-3333333-55-5555555-55-7777777----|
A--7777777-33-3333333-33-5555555-33-7777777----|
E--5555555----1111111----3333333----5555555----|  Repeat


Chorus

e-------------------------------------------------------------|
B-------------------------------------------------------------|
G--555555-99-101010--------5-7-55-99--555555-99-101010--------|
D--555555-99-101010-555555-5-7-55-99--555555-99-101010-555555-|
A--333333-77-8-8-8--555555-3-5-33-77--333333-77-8-8-8--555555-|
E-------------------333333-----------------------------333333-|

e------------|
B------------|
G--5-7-55-5--|
D--5-7-55-5--|
A--3-5-33-0--|
E------------|


than back to the Verse


Bridge

e--000000000--00000000--|
B--111111111--11111111--|
G--222222222--00000000--|
D--333333333--22222222--|
A--000000000--33333333--|
E-----------------------|
Repeat than
e----------------------------------------|
B----------------------------------------|
G--------------------------5~------------|
D--7-77777777--5-55555555--5~------------|
A--7-77777777--5-55555555--3~------------|
E--5-55555555--3-33333333----------------|


Last Verse

also the last chord on the last verse is E open --2--
                                                --2--
                                                --0--


e----------------------------------------------|
B----------------------------------------------|
G----------55---------55---------55------------|
D--7777777-55-3333333-55-5555555-55-2222222----|
A--7777777-33-3333333-33-5555555-33-2222222----|
E--5555555----1111111----3333333----0000000----|

Last Chorus

e-------------------------------------------------------------|
B-------------------------------------------------------------|
G--555555-99-101010--------5-7-55-99--555555-99-101010-121212-|
D--555555-99-101010-555555-5-7-55-99--555555-99-101010-121212-|
A--333333-77-8-8-8--555555-3-5-33-77--333333-77-8-8-8--101010-|
E-------------------333333------------------------------------|

e-----------|
B-----------|
G--5-7-55---|
D--5-7-55---|
A--3-5-33---|
E-----------|END


Intro  x2
Verse  x2
Chorus x2
Verse  x2
Bridge x1
Intro  x1
Verse  x2
Last Verse x1
Verse x1
Chorus x1
Last Chorus x1

Thanks for reading i work hard I'll try to update it if you guys say something
or whenever
Thanks Again!!!
HB 4 LIFe


http://www.keikaku.net/profiles/19/
Добавлено: 19.03.2012
Вам также может быть интересно:
Другие материалы по этой песне:
  • Аккорды и текст

Страница создана 19.03.2012
http://primanota.ru/husking-bee/walk-chords.htm
Привет, Гость.
Предлагаем пройти революционный курс по гитаре.
Подарок от PrimaNota.Ru, забирай!