PrimaNota.ru - самый крупный в мире бесплатный архив песенных текстов, аккордов, табулатур и нот


Husker Du - Zen Arcade (album) - таба, видео

Регистрация Запомнить меня
Войти через:  Facebook Google Twitter Vk Yandex Mail.ru

Husker Du - Zen Arcade (album) - таба, видео

Печатать
Просмотров: 211
This is a wonderful album by the band Husker Du.
All sides.
Released July 1984

1. SOMETHING I LEARNED TODAY (Bob Mould)

Chords:
B  X2440X    F# 244X0X   D  X5770X   A 57700X
Asus2 X0220X  B X2440X   C# X466XX   E X79900  *F# X9 11 11 XX

Intro (bass) played three times:
G:---------------------------------------------------------------------------|
D:-4---4---4---4---4---4---4---4-----------------------------------7---7---7-|
A:-0---2---2---0---0---2---2---0---4---4---4---4---4---4---4---4---0---5---5-|
E:---------------------------------0---2---2---0---0---2---2---0-------------|

G:----------------------------------------------------|
D:--7---7---7---7---7---------------------------------|
A:--0---0---5---5---0---7---7---7---7---7---7---7---7-|
E:----------------------0---5---5---0---0---5---5---0-|

GUITAR (chord held over second run of bass riff):
    B
e:-----------------------------------------------------------------|
B:--0--------------------------------------------------------------|
G:--4--------------------------------------------------------------|
D:--4--------------------------------------------------------------|
A:--2--------------------------------------------------------------|
E:-----------------------------------------------------------------|

GUITAR (played over third run of bass riff):
   B                   F#                  D                   A
e:---------------------------------------------------------------------------|
B:-0-0-0-0---0-0-0-0---0-0-0-0---0-0-0-0---0-0-0-0---0-0-0-0---0-0-0-0---0-0-|
G:-4-4-4-4---4-4-4-4-----------------------7-7-7-7---7-7-7-7---0-0-0-0---0-0-|
D:-4-4-4-4---4-4-4-4---4-4-4-4---4-4-4-4---7-7-7-7---7-7-7-7---7-7-7-7---7-7-|
A:-0-2-2-2---0-2-2-2---4-4-4-4---4-4-4-4---0-5-5-5---0-5-5-5---7-7-7-7---7-7-|
E:---------------------0-2-2-2---0-2-2-2-----------------------0-5-5-5---0-5-|

e:--------|
B:0-0---0-|
G:0-0---0-|
D:7-7---7-|
A:7-7---7-|
E:5-5---5-|

B           D         Asus2
Something I learned today
B                   Asus2  C#
Black and white is always grey
B                   D      Asus2
Looking through the window pane
B         C#     Asus2
I'm not inside  your

GUITAR Riff (played twice)

   B                   F#                  D                   A
e:---------------------------------------------------------------------------|
B:-0-0-0-0---0-0-0-0---0-0-0-0---0-0-0-0---0-0-0-0---0-0-0-0---0-0-0-0---0-0-|
G:-4-4-4-4---4-4-4-4-----------------------7-7-7-7---7-7-7-7---0-0-0-0---0-0-|
D:-4-4-4-4---4-4-4-4---4-4-4-4---4-4-4-4---7-7-7-7---7-7-7-7---7-7-7-7---7-7-|
A:-0-2-2-2---0-2-2-2---4-4-4-4---4-4-4-4---0-5-5-5---0-5-5-5---7-7-7-7---7-7-|
E:---------------------0-2-2-2---0-2-2-2-----------------------0-5-5-5---0-5-|
   brain...

e:--------|
B:0-0---0-|
G:0-0---0-|
D:7-7---7-|
A:7-7---7-|
E:5-5---5-|

B            D        Asus2
Something I learned today
B            Asus2    C#
Yield to the right-of-way
B             D     Asus2
Stopping at a 4-way sign
B              C#             Asus2
Someone else's rules, not mine


GUITAR Riff (played twice)

B            D         Asus2
Something I learned today
B                    Asus2  C#
Never look straight in the sun's rays
B               D        Asus2
Letting all the sunshine in
B              C#     Asus2
Can't remember where I've been

GUITAR Riff (played four times)

Something I learned
B
to day ay ay
C#          E          B
Something I learned to day ay ay
C#          E          B
Something I learned to day ay ay
C#          E          B
Something I learned to day ay ay
C#          E          B
Something I learned to day ay ay
C#          E          B
Something I learned to day ay ay
C#          E          B
Something I learned to day ay ay

*F# // E  F#    (F# with open B string picked to fade)

TP.

BROKEN HOME, BROKEN HART (Bob Mould)

Chords:

E 079900    A5 577XXX     B5 799XXX    G  320033    D XX023X

F#5 244XXX  Asus2 X02200  C#5 X466XXX  E* X22450

Intro:

E    E - Pick scrape.

E                  A5   B5
I look at your house
E                  A5   B5
I wonder what goes on inside
E                                A5       B5
When you have to cry yourself to sleep at night

   G (riff)
e:-3-------------------3---------------|
B:-3-------------------3---------------|
G:-0-------------------0---0-0---0-----|
D:-0-------------------------------0---|
A:-2---2-2---0---0-0---2---2-3---2-2---|
E:-3---3-3-------------------------3---|

E                    A5       B5
Your parents fight
E                    A5       B5
You don't know who's wrong or right
E                       A5       B5
Have to cry yourself to sleep at night

   G (riff)
e:-3-------------------3---------------|
B:-3-------------------3---------------|
G:-0-------------------0---0-0---0-----|
D:-0-------------------------------0---|
A:-2---2-2---0---0-0---2---2-3---2-2---|
E:-3---3-3-------------------------3---|


G                       D
A broken home, a broken heart
         G                        D
When the two of them will have to part
              G                 D
It's a broken home, or a broken heart
        E*
Now you know just how it feels
E*
To have to cry yourself to sleep at night

   E5      D                   Asus2   D
e:---------------------------|-----0---------------------|
B:---------3-3-3-3-3-3-3-3---|-----0---3-3-3-3-3-3-3-3---|
G:-----4---2-2-2-2-2-2-2-2---|-2---2---2-2-2-2-2-2-2-2---| Played
D:-2---2---0-0-0-0-0-0-0-0---|-2---2---0-0-0-0-0-0-0-0---| twice
A:-2---2---------------------|-0---0---------------------|
E:-0---0---------------------|---------------------------|

E                  A5   B5
I look at your house
E                     A5   B5
I look in your window deep inside
E                                A5      B5
How you going to cry yourself to sleep tonight?

   G (riff)
e:-3-------------------3---------------|
B:-3-------------------3---------------|
G:-0-------------------0---0-0---0-----|
D:-0-------------------------------0---|
A:-2---2-2---0---0-0---2---2-3---2-2---|
E:-3---3-3-------------------------3---|

E                    A5       B5
Your parents fight
E                    A5       B5
You don't know who's wrong or right
E                       A5       B5
Have to cry yourself to sleep at night

   G (riff)
e:-3-------------------3---------------|
B:-3-------------------3---------------|
G:-0-------------------0---0-0---0-----|
D:-0-------------------------------0---|
A:-2---2-2---0---0-0---2---2-3---2-2---|
E:-3---3-3-------------------------3---|


G                       D
A broken home, a broken heart
         G                        D
When the two of them will have to part
              G                 D
It's a broken home, or a broken heart
        E*
Now you know just how it feels
E*
To have to cry yourself to sleep at night

   E5      D                   Asus2   D
e:---------------------------|-----0---------------------|
B:---------3-3-3-3-3-3-3-3---|-----0---3-3-3-3-3-3-3-3---|
G:-----4---2-2-2-2-2-2-2-2---|-2---2---2-2-2-2-2-2-2-2---| Played
D:-2---2---0-0-0-0-0-0-0-0---|-2---2---0-0-0-0-0-0-0-0---| twice
A:-2---2---------------------|-0---0---------------------|
E:-0---0---------------------|---------------------------|

Break:

   E                     (hold)
e:--------------------------------------------------|
B:-5-5---5-5---5-5-5-5---5------------------------\-|
G:-4-4---4-4---4-4-4-4---4------------------------\-|
D:-2-2---2-2---2-2-2-2---2------------------------\-|
A:-2-2---2-2---2-2-2-2---2------------------------\-|
E:--------------------------------------------------|

                                                       (Very Fast):
   F#   Asus2 F#   Asus2   C#5                         F#          Asus2
e:-----------------------------------------|         |-0-0-0-0-----0--(0)-(0)-|
B:-----------------------------------------| Played  |-5-5-5-5-----5--(5)-(5)-|
G:-----------------------------6-6---6-6---| three   |-7-7-7-7-----7-b-9-r-7--|
D:-----------------------------6-6---6-6---| times   |------------------------|
A:-------0---------0---2-/(4)--4-4---4-4---|         |------------------------|
E:-2-2-------2-2---------------------------|         |------------------------|

  F#          Asus2        F#          Asus2        D
|-0-0-0-0-----0--(0)-(0)-|-0-0-0-0-----0--(0)-(0)-|-0-0-0-0-----0--(0)-(0)-|
|-5-5-5-5-----5--(5)-(5)-|-5-5-5-5-----5--(5)-(5)-|-5-5-5-5-----5--(5)-(5)-|
|-7-7-7-7-----7-b-9-r-7--|-7-7-7-7-----7-b-9-r-7--|-7-7-7-7-----7-b-9-r-7--|
|------------------------|------------------------|------------------------|
|------------------------|------------------------|------------------------|
|------------------------|------------------------|------------------------|

   F#      Asus2 F#        Asus2     C#5
e:-----------------------------------------------|
B:-----------------------------------------------|
G:-------------------------------------------6-6-| Played
D:-------------------------------------------6-6-| twice
A:---------0-----2----4----2----0----2-/(4)--4-4-|
E:-2-2-------------------------------------------|

   F#  A5           F#      B5  C#5     A5
e:------------------------------------|-0---0----0--0--|
B:------------------------------------|-5---5----5--5--|
G:-11/-14-14---14-\-11-11-------------|-7-b(9)--(9)(9)-|
D:-11/-14-14---14-\-11-11---9-/-11-11-|----------------|
A:-9-/-12-12---12-\-9--9----9-/-11-11-|----------------|
E:--------------------------7-/-9--9--|----------------|

  A5
|-0---0----0--0--|-0---0----0--0--|-0---0----0--0--|
|-5---5----5--5--|-5---5----5--5--|-5---5----5--5--|
|-7-b(9)--(9)(9)-|-7-b(9)--(9)(9)-|-7-b(9)--(9)(9)-|
|----------------|----------------|----------------|
|----------------|----------------|----------------|
|----------------|----------------|----------------|

   G             D        Asus2
e:------------------------0-------------------|
B:------------------------0-------------------| Played
G:-12-12---------7--------2-------------------| four
D:-12-12---------7--------2-------------------| times
A:-10-10---------5--------0-------------------| to
E:--------------------------------------------| end.

TP.

NEVER TALKING TO YOU AGAIN (Grant Hart)

Chords:

Am X02210     Asus2 X02200    Em 022000    G 320033    D XX0232

Dsus4 XX233   Dsus2 XX0230

Intro:  Am   Em   Am   Em   (Played twice)

Am        Em              Am      Em
There are things that I'd like to say
        G     D          Am   Asus2
But I'm never talking to you again
Am                 Em      Am          Em
There's things I'd like to phrase some way
        G     D          Am   Asus2
But I'm never talking to you again

Chorus:

    D     Dsus4 D    Am   Asus2
I'm never talking to you again
    D     Dsus4 D    Am   Asus2
I'm never talking to you
    D        Dsus4 D Am     Asus2
I'm tired of wasting all my time
G(hold)           D
Trying to talk to you

Am          Em         Am    Em
I'd put you down where you belong
        G     D          Am   Asus2
But I'm never talking to you again
Am           Em    Am         Em
I'd show you every way you're wrong
        G     D          Am   Asus2
But I'm never talking to you again

Chorus:

    D     Dsus4 D    Am   Asus2
I'm never talking to you again
    D     Dsus4 D    Am   Asus2
I'm never talking to you
    D        Dsus4 D Am     Asus2
I'm tired of wasting all my time
G(hold)           D
Trying to talk to you (talking to you)

Break: Verse chords (no vocal)

Chorus:

    D     Dsus4 D    Am   Asus2
I'm never talking to you again
    D     Dsus4 D    Am   Asus2
I'm never talking to you
    D        Dsus4 D Am     Asus2
I'm tired of wasting all my time
G(hold)           Dsus2(hold)
Trying to talk to you

TP.

CHARTERED TRIPS (Bob Mould)

Chords:

F# 244XXX  G# 466XXX  B X2440X  C# X466XX  Asus2 X02200  G 355033

Intro Riff (Played Twice)
e:-------------------------------------------------------------------------|
B:-----0-----------0-----------0-----------0-----------0-----------0-------|
G:-----4-----------4-----------4-----------4-----------4-----------4-------|
D:-------------------------2-------2---------------------------------------|
A:-2-------2---4-------4---------------0-------0---------------------------|
E:-------------------------------------------------3-------3---2-------2---|

Verse Riff (play bass notes with thumb)
   F#            G#                B                C#
e:----------------------------------------------------0-0---------------------|
B:---------------------------------0---0---0---0------0-0--4--0-0----0-0------|
G:---------------------------------4---4---4---4-sl-6---------4-4----4-4------|
D:-4---4---4---4-6---6---6---6-6---4---4---4---4-sl-6---------6-6----6-6------|
A:-4---4---4---4-6---6---6---6-6---2---2---2---2-sl-4-------------------------|
E:-2---2---2---2-4---4---4---4-4----------------------------------------------|

F#                  G#              B           C#
Well I picked up my belongings in a nylon carry-all
F#                G#         B        C#
I hear the porter call
F#                  G#            B               C#
Said "The sky's the limit on this chartered trip away,"
F#                  G#         Asus2
I guess I'd better stay

F#               G#             B             C#
Out there on the desert, I see trees on every wall
F#             G#           B        C#
Nothing's ever solved
F#                  G#            B               C#
Said "The sky's the limit on this chartered trip away,"
F#               Asus2
Guess I'd better stay away

Riff 3 (played twice)
e:---------------------------------------------------------------------------|
B:-----0-----------0-----------0-----------0-----------0-----------0---------|
G:-----4-----------4-----------4-----------4-----------4-----------4---------|
D:-------------------------2-------2-----------------------------------------|
A:-2-------2---4-------4---------------0-------0-----------------------------|
E:-------------------------------------------------3-------3---2-------2---3-|

e:--------------------|
B:--0-----------0-----|
G:--4-----------4-----|
D:--------------------|
A:--------------------|
E:------3---2-------2-|

CHORUS (The G chord descends as follows: 355033,  354033,  350033):

G                         Asus2
I thought I owed myself a trip away
G                            Asus2
I wanted to go to places I have never been away
G                                 Asus2
I looked at the pictures, imagine where they lay
G                                        Asus2                         G
Away on a beach by the sand, where their clothes all lay, clothes all, clothes

all lay away


F#             G#              B           C#
I picked up my belongings in a nylon carry-all
F#                G#         B        C#
I hear the porter call
F#          G#        B               C#
Horizon is oblivious, chartered trip away
F#                  G#        Asus2
I guess I'd better stay

F#               G#             B             C#
Out there on the desert, I see trees on every wall
F#             G#           B        C#
Nothing's ever solved
F#          G#        B               C#
Horizon is oblivious, chartered trip away
F#                      Asus2
GuessI guess I'd better stay away


Riff 3
Said "There's no returning from this chartered trip away."
Riff 3
Said "There's no returning from this chartered trip away."


RPT. CHORUS


F#           G#              B           C#
Picked up my belongings in a nylon carry-all
F#              G#         B        C#
Hear the porter call
F#               G#                  B               C#
Said "There's no returning from this chartered trip away,"
F#                 G#      Asus2
I guess I'd better stay

F#                 G#                 B              C#
Said "There's no returning from this chartered trip away,"
F#                 G#                 B              C#
Said "There's no returning from this chartered trip away,"
F#                 G#                 B              C#
Said "There's no returning from this chartered trip away,"
F#        Asus2
Said no return......


Outro (Riff 4) played over Asus2 to fade:

e:------------------------------------|
B:-5-5-5-5---5-5-5-5---5-5-5-5---0-0--|
G:-0-0-0-0---0-0-0-0---0-0-0-0---0-0--|
D:-7-7-7-7---7-7-7-7---7-7-7-7---7-7--|
A:-7---------7---------7--------------|
E:------------------------------------|

TP

INDECISION TIME (Bob Mould)

Note: where you see this ^^^ above a bend, repeatedly bend and release the indicated
notes with lots of vibrato.


Intro:

   G     G#    A     Bb    A   Bb G   A        ^^^^^^^^^^^^^^^^^
e:---------------------------------------|---------------------------------------|
B:---------------------------------------|---------------------------------------|
G:---------------------------------------|---------------------------------------|
D:-5-----6-----7-----8-----7-/-8--5-/-7--|---------------------------------------|
A:-5-----6-----7-----8-----7-/-8--5-/-7--|-3-/-5-b-6-----------------------------|
E:-3--0--4--0--5--0--6--0--5-/-6--3-/-5--|---------------------------------------|


   G     G#    A     Bb    A   Bb G   A    G     G#    A     Bb
e:---------------------------------------|------------------------12b13----------|
B:---------------------------------------|----------------------------12b13------|
G:---------------------------------------|--------------------------------13b14--|
D:-5-----6-----7-----8-----7-/-8--5-/-7--|-5-----6-----7-----8-7b6---------------|
A:-5-----6-----7-----8-----7-/-8--5-/-7--|-5-----6-----7-----8-------------------|
E:-3--0--4--0--5--0--6--0--5-/-6--3-/-5--|-3--0--4--0--5--0--6-------------------|
Questions like a candle that's burning at both ends


   G     G#    A     Bb    A   Bb G   A    G     G#    A     Bb   ^^^^^^^^^^
e:---------------------------------------|---------------------------------------|
B:---------------------------------------|---------------------------------------|
G:---------------------------------------|---------------------------------------|
D:-5-----6-----7-----8-----7-/-8--5-/-7--|-5-----6-----7-----8-------------------|
A:-5-----6-----7-----8-----7-/-8--5-/-7--|-5-----6-----7-----8--3/5b6------------|
E:-3--0--4--0--5--0--6--0--5-/-6--3-/-5--|-3--0--4--0--5--0--6-------------------|
Never find an answer that fits in your plans


   A5  G5     A5  G5     A5                  G5     A5  G5     D
e:-------------------------------------|-------------------------------------|
B:-------------------------------------|-------------------------------------|
G:-9---7-7----9---7-7----9---9---9---9-|-9---7-7----9---7-7----7---7---7---7-|
D:-7---5-5----7---5-5----7---7---7---7-|-7---5-5----7---5-5----7---7---7---7-|
A:-------------------------------------|-----------------------5---5---5---5-|
E:-------------------------------------|-------------------------------------|
Back and forth take the good with the bad in-de  -  cision     time


   A5  G5     A5  G5     A5              C#(hold)                      ^^^^^
e:-------------------------------------|-------------------------------14b15-|
B:-------------------------------------|-------------------------------------|
G:-9---7-7----9---7-7----9---9---9---9-|-6-----------------------------------|
D:-7---5-5----7---5-5----7---7---7---7-|-6-----------------------------------|
A:-------------------------------------|-4--------------------------9b10-----|
E:-------------------------------------|-----------------------9-------------|
   You're so natural you're so free     so don't decide what's best for me


   G     G#    A     Bb    A   Bb G   A    G     G#    A     Bb
e:---------------------------------------|---------------------------------------|
B:---------------------------------------|---------------------------------------|
G:---------------------------------------|---------------------------------------|
D:-5-----6-----7-----8-----7-/-8--5-/-7--|-5-----6-----7-----8-6/8b-9r-8\6-------|
A:-5-----6-----7-----8-----7-/-8--5-/-7--|-5-----6-----7-----8-------------------|
E:-3--0--4--0--5--0--6--0--5-/-6--3-/-5--|-3--0--4--0--5--0--6-------------------|
Nothing in your life is ever going on course


   G     G#    A     Bb    A   Bb G   A    G     G#    A     Bb    ^^^^^^^^^^^
e:---------------------------------------|---------------------------------------|
B:---------------------------------------|---------------------------------------|
G:---------------------------------------|---------------------------------------|
D:-5-----6-----7-----8-----7-/-8--5-/-7--|-5-----6-----7-----8-7-/-9-------------|
A:-5-----6-----7-----8-----7-/-8--5-/-7--|-5-----6-----7-----8-------------------|
E:-3--0--4--0--5--0--6--0--5-/-6--3-/-5--|-3--0--4--0--5--0--6-------------------|
You wonder if living could be much worse


   A5  G5     A5  G5     A5                  G5     A5  G5     D
e:-------------------------------------|-------------------------------------|
B:-------------------------------------|-------------------------------------|
G:-9---7-7----9---7-7----9---9---9---9-|-9---7-7----9---7-7----7---7---7---7-|
D:-7---5-5----7---5-5----7---7---7---7-|-7---5-5----7---5-5----7---7---7---7-|
A:-------------------------------------|-----------------------5---5---5---5-|
E:-------------------------------------|-------------------------------------|
Back and forth take the good with the bad in-de  -  cision     time


   A5  G5     A5  G5     A5              C#
e:-------------------------------------|---------------------------------|
B:-------------------------------------|---------------------------------|
G:-9---7-7----9---7-7----9---9---9---9-|-6---6---6-6---6-6---6--6--6--6--|
D:-7---5-5----7---5-5----7---7---7---7-|-6---6---6-6---6-6---6--6--6--6--|
A:-------------------------------------|-4---4---4-4---4-4---4--4--4--4--|
E:-------------------------------------|---------------------------------|
   You're so natural you're so free     so don't decide what's best for me


   D           E  D           C#         D                             C#
e:-------------------------------------|----------------------------------|
B:-------------------------------------|----------------------------------|
G:-7--7--7--7--9--7--7--7--7--6--------|-7---7--7--7--7---7--7--7--7---6--|
D:-7--7--7--7--9--7--7--7--7--6--------|-7---7--7--7--7---7--7--7--7---6--|
A:-5--5--5--5--7--5--5--5--5--4--------|-5---5--5--5--5---5--5--5--5---4--|
E:-------------------------------------|----------------------------------|
  Go to the left  Go to the right    Your mind is going to keep you up all night


   D           E  D           C#         C                           ^^^^^^
e:-------------------------------------|-----------------------------------|
B:-------------------------------------|-----------------------------------|
G:-7--7--7--7--9--7--7--7--7--6--------|-5---5---5---5-5/10b12r10b12/16b17-|
D:-7--7--7--7--9--7--7--7--7--6--------|-5---5---5---5---------------------|
A:-5--5--5--5--7--5--5--5--5--4--------|-3---3---3---3---------------------|
E:-------------------------------------|-----------------------------------|
You twist in your sleep, grabbing the sheets sweating to death


   G     G#    A     Bb    A   Bb G   A    G     G#    A     Bb       ^^^^^^
e:---------------------------------------|-------------------------------------|
B:---------------------------------------|---------------------10b12-----------|
G:---------------------------------------|-------------------------------------|
D:-5-----6-----7-----8-----7-/-8--5-/-7--|-5-----6-----7-----8-----------------|
A:-5-----6-----7-----8-----7-/-8--5-/-7--|-5-----6-----7-----8--------12b13----|
E:-3--0--4--0--5--0--6--0--5-/-6--3-/-5--|-3--0--4--0--5--0--6-----------------|
Sucking on pollution like a rattle in your mouth


   G     G#    A     Bb    A   Bb G   A    G     G#    A     Bb      ^^^^^
e:---------------------------------------|---------------------------------------|
B:---------------------------------------|---------------------------------------|
G:---------------------------------------|---------------------10b12-------------|
D:-5-----6-----7-----8-----7-/-8--5-/-7--|-5-----6-----7-----8-------------------|
A:-5-----6-----7-----8-----7-/-8--5-/-7--|-5-----6-----7-----8-------13b14-------|
E:-3--0--4--0--5--0--6--0--5-/-6--3-/-5--|-3--0--4--0--5--0--6-------------------|
You're a big fucking kid, you don't know what you're about


   A5  G5     A5  G5     A5                  G5     A5  G5     D
e:-------------------------------------|-------------------------------------|
B:-------------------------------------|-------------------------------------|
G:-9---7-7----9---7-7----9---9---9---9-|-9---7-7----9---7-7----7---7---7---7-|
D:-7---5-5----7---5-5----7---7---7---7-|-7---5-5----7---5-5----7---7---7---7-|
A:-------------------------------------|-----------------------5---5---5---5-|
E:-------------------------------------|-------------------------------------|
Back and forth take the good with the bad in-de  -  cision     time


   A5  G5     A5  G5     A5              C#                         ^^^^^^^^^
e:-------------------------------------|-------------------------------------|
B:-------------------------------------|-------------------------------------|
G:-9---7-7----9---7-7----9---9---9---9-|-6-6-----6-6----6------6-6-----------|
D:-7---5-5----7---5-5----7---7---7---7-|-6-6-----6-6----6------6-6-----------|
A:-------------------------------------|-4-4-----4-4----4------4-4-----------|
E:-------------------------------------|---------------------------12-b-14---|
   You're so natural you're so free     so don't decide what's best for me


   G     G#    A     Bb    A   Bb G   A    G     G#    A     Bb        ^^^^^^^^
e:---------------------------------------|---------------------------------------|
B:---------------------------------------|---------------------------------------|
G:---------------------------------------|---------------------------------------|
D:-5-----6-----7-----8-----7-/-8--5-/-7--|-5-----6-----7-----8-------------------|
A:-5-----6-----7-----8-----7-/-8--5-/-7--|-5-----6-----7-----8-------------------|
E:-3--0--4--0--5--0--6--0--5-/-6--3-/-5--|-3--0--4--0--5--0--6-7-/-9-/-12-b-14---|
   Tell me about your fellow man


   G     G#    A     Bb    A   Bb G   A    G     G#    A     Bb
e:---------------------------------------|---------------------------------------|
B:---------------------------------------|----------------------7--(7)-----------|
G:---------------------------------------|----------------------9-b-11-----------|
D:-5-----6-----7-----8-----7-/-8--5-/-7--|-5-----6-----7-----8-------------------|
A:-5-----6-----7-----8-----7-/-8--5-/-7--|-5-----6-----7-----8-------------------|
E:-3--0--4--0--5--0--6--0--5-/-6--3-/-5--|-3--0--4--0--5--0--6-------------------|
   You wipe their shit all over your hands


   A5  G5     A5  G5     A5                  G5     A5  G5     D
e:-------------------------------------|-------------------------------------|
B:-------------------------------------|-------------------------------------|
G:-9---7-7----9---7-7----9---9---9---9-|-9---7-7----9---7-7----7---7---7---7-|
D:-7---5-5----7---5-5----7---7---7---7-|-7---5-5----7---5-5----7---7---7---7-|
A:-------------------------------------|-----------------------5---5---5---5-|
E:-------------------------------------|-------------------------------------|
Back and forth take the good with the bad in-de  -  cision     time


   A5  G5     A5  G5     A5              C#
e:-------------------------------------|---------------------------------|
B:-------------------------------------|---------------------------------|
G:-9---7-7----9---7-7----9---9---9---9-|-6---6---6-6---6-6---6--6--6--6--|
D:-7---5-5----7---5-5----7---7---7---7-|-6---6---6-6---6-6---6--6--6--6--|
A:-------------------------------------|-4---4---4-4---4-4---4--4--4--4--|
E:-------------------------------------|---------------------------------|
   You're so natural you're so free


   D           E  D           C#         D                             C#
e:-------------------------------------|----------------------------------|
B:-------------------------------------|----------------------------------|
G:-7--7--7--7--9--7--7--7--7--6--------|-7---7--7--7--7---7--7--7--7---6--|
D:-7--7--7--7--9--7--7--7--7--6--------|-7---7--7--7--7---7--7--7--7---6--|
A:-5--5--5--5--7--5--5--5--5--4--------|-5---5--5--5--5---5--5--5--5---4--|
E:-------------------------------------|----------------------------------|
  Go to the left  Go to the right    Your mind is going to keep you up all night


    D           E  D           C#        C               ^^^^   ^^^^
e:-------------------------------------|------------------------10-b-12----|
B:-------------------------------------|-----------------7-b-9-------------|
G:-7--7--7--7--9--7--7--7--7--6--------|-5---5---5---5---------------------|
D:-7--7--7--7--9--7--7--7--7--6--------|-5---5---5---5---------------------|
A:-5--5--5--5--7--5--5--5--5--4--------|-3---3---3---3---------------------|
E:-------------------------------------|-----------------------------------|
You twist in your sleep, grabbing the sheets sweating to death


Solo (over the following played twice):

   G     G#    A     Bb    A   Bb G   A    G     G#    A     Bb(hold)
e:---------------------------------------|---------------------------------------|
B:---------------------------------------|---------------------------------------|
G:---------------------------------------|---------------------------------------|
D:-5-----6-----7-----8-----7-/-8--5-/-7--|-5-----6-----7-----8-------------------|
A:-5-----6-----7-----8-----7-/-8--5-/-7--|-5-----6-----7-----8-------------------|
E:-3--0--4--0--5--0--6--0--5-/-6--3-/-5--|-3--0--4--0--5--0--6-------------------|


   G     G#    A     Bb    A   Bb G   A    G     G#    A     Bb(hold)
e:---------------------------------------|---------------------------------------|
B:---------------------------------------|---------------------------------------|
G:---------------------------------------|---------------------------------------|
D:-5-----6-----7-----8-----7-/-8--5-/-7--|-5-----6-----7-----8-------------------|
A:-5-----6-----7-----8-----7-/-8--5-/-7--|-5-----6-----7-----8-------------------|
E:-3--0--4--0--5--0--6--0--5-/-6--3-/-5--|-3--0--4--0--5--0--6-------------------|

   A5  G5     A5  G5     A5                  G5     A5  G5     D
e:-------------------------------------|-------------------------------------|
B:-------------------------------------|-------------------------------------|
G:-9---7-7----9---7-7----9---9---9---9-|-9---7-7----9---7-7----7---7---7---7-|
D:-7---5-5----7---5-5----7---7---7---7-|-7---5-5----7---5-5----7---7---7---7-|
A:-------------------------------------|-----------------------5---5---5---5-|
E:-------------------------------------|-------------------------------------|


   A5  G5     A5  G5     A5              C#(hold)
e:-------------------------------------|-------------------------------------|
B:-------------------------------------|-------------------------------------|
G:-9---7-7----9---7-7----9---9---9---9-|-6-----------------------------------|
D:-7---5-5----7---5-5----7---7---7---7-|-6-----------------------------------|
A:-------------------------------------|-4-----------------------------------|
E:-------------------------------------|-------------------------------------|


Ends with:


  C# D        C# D        C# D        C# D        C# D        C# D
e:-----------------------------------------------------------------------------|
B:-----------------------------------------------------------------------------|
G:-6/7-7-7-7-7-6/7-7-7-7-7-6/7-7-7-7-7-6/7-7-7-7-7-6/7-7-7-7-7-6/7-7-7-7-7-----|
D:-6/7-7-7-7-7-6/7-7-7-7-7-6/7-7-7-7-7-6/7-7-7-7-7-6/7-7-7-7-7-6/7-7-7-7-7-----|
A:-4/5-5-5-5-5-4/5-5-5-5-5-4/5-5-5-5-5-4/5-5-5-5-5-4/5-5-5-5-5-4/5-5-5-5-5-----|
E:-----------------------------------------------------------------------------|


   C            D#           G#           C                B A E(hold)
e:---------------------------------------------------------------------------|
B:---------------------------------------------------------------------------|
G:-5--5--5--5---8--8--8--8----------------5---5--5--5--5---4-2---------------|
D:-5--5--5--5---8--8--8--8---6--6--6--6---5---5--5--5--5---4-2-2-------------|
A:-3--3--3--3---6--6--6--6---6--6--6--6---3---3--3--3--3---2-0-2-------------|
E:---------------------------4--4--4--4------------------------0-------------|

TP.

HARE KRSNA (Bob Mould, Grant Hart, Greg Norton)

Chords:    C5 X355XX    Bb5 X133XX

Intro:

   C5                 Bb5 C5                         Bb5 C5
e:------------------------------|------------------------------|
B:------------------------------|------------------------------| Played
G:-5-----5-5----5-----3---5-----|-5-----5-5----5-----3---5-----| four
D:-5-----5-5----5-----3---5-----|-5-----5-5----5-----3---5-----| times
A:-3-----3-3----3-----1---3-----|-3-----3-3----3-----1---3-----|
E:------------------------------|------------------------------|


   C5                 Bb5 C5                         Bb5 C5
e:------------------------------|------------------------------|
B:------------------------------|------------------------------| Played
G:-5-----5-5----5-----3---5-----|-5-----5-5----5-----3---5-----| four
D:-5-----5-5----5-----3---5-----|-5-----5-5----5-----3---5-----| times
A:-3-----3-3----3-----1---3-----|-3-----3-3----3-----1---3-----|
E:------------------------------|------------------------------|
   Krsna walking down the street
   Touching me with lotus feet
   Going to talk to the Radharani
   Going to ask her for her money

   C5                 Bb5 C5                         Bb5 C5
e:------------------------------|------------------------------|
B:------------------------------|------------------------------| Played
G:-5-----5-5----5-----3---5-----|-5-----5-5----5-----3---5-----| eight
D:-5-----5-5----5-----3---5-----|-5-----5-5----5-----3---5-----| times
A:-3-----3-3----3-----1---3-----|-3-----3-3----3-----1---3-----|
E:------------------------------|------------------------------|
   Hare               Krs-na
   Hare               Krs-na
   Krsna              Krs-na
   Hare               Ra -ma
   Hare               Ra -ma
   Rama               Ra -ma
   Hare               Ha -re

As the song continues much of the rhythm is carried by the bass riff below (often with the
guitar holding a C5 chord over it).

G:-----------------------|
D:-----------------------|
A:-----------------------|
E:-8---8-8---8---6---8---|


At 1:27 the rhythm changes to:

 Bb5 C5                  Bb5 C5
e:-----------------------------|
B:-----------------------------|
G:-3/5---5---5-5-5---5---3---5-|
D:-3/5---5---5-5-5---5---3---5-|
A:-1/3---3---3-3-3---3---1---3-|
E:-----------------------------|

The rest you'll have to improvise for yourself.

TP.

BEYOND THE THRESHOLD (Bob Mould)

Chords:

F# X 9 11 11 X X    F X 8 10 10 X X    E X799XX

C# 9 11 11 X X X    C 8 10 10 X X X   Bb 688XXX    C* X355XX


Intro (sl.=slide, /=rhythm pattern):

F# F   E   Esl.F   F/  //

F# F   E   Esl.F   C# C Bb

F# F   E   Esl.F   F/  //

F# F   E   Esl.F   C# C Bb

C*

F#     F   E     F
It's a one-horse town
F# F E   F
One  big desert
F# F  E   F
As-ph-alt desert
F# F E F C# C Bb
Asphalt jungle

C*
Beyond the threshold, beyond the threshold

F#  F   E      F
Change for the worse
F#  F   E      F
Change nonetheless
F#  F   E      F
Hey hey hey
F#  F E F C# C  Bb
Got no place to stay

C*
Beyond the threshold, beyond the threshold

Solo:
e:---------------------------------------------------------------------|
B:---------------------------------------------------------------------|
G:-------------------------------------------1-0-------0---1---0-------|
D:-------------1---------------------1-------------3---------------3---|
A:-3---3---3-------3-----3---3---3-------3-----------------------------|
E:---------------------------------------------------------------------|

(*Bar top three strings at 8th fret with index finger)
e:------------------------8-------8-------8-------8----------------------------|
B:-8----------------------8-------8-------8-------8---------------8--8--8---8--|
G:-10-b12--12-p10-p8------10-b12--10-b12--10-b12--10-b12--10-b12--12-12-12--10-|
D:--------------------10-------------------------------------------------------|
A:-----------------------------------------------------------------------------|
E:-----------------------------------------------------------------------------|

<-----------------------Play four times (end with pick scrape)----------------->


F#  F   E   F
I hear machines
F#  F E  F C#  C  Bb
They burst at the seams
F#  F   E   F
But tar and feather
F#  F E F C# C Bb
All stick together

C*
Beyond the threshold, beyond the threshold

F#  F     E    F
Greetings from home
F#  F E F C# C  Bb
I wish you were here
F#  F     E     F
Hear what I say but
F#  F E   F    C# C  Bb
You can't hear me at all

e:---------------------------------------------------------------------|
B:---------------------------------------------------------------------|
G:-------------------------------------------1-0-------0---1---0-------|
D:-------------1---------------------1-------------3---------------3---|
A:-3---3---3-------3-----3---3---3-------3-----------------------------|
E:---------------------------------------------------------------------|
                         Beyond              the

e:------------------------8-------8-------8-------8----------------------------|
B:-8----------------------8-------8-------8-------8---------------8--8--8---8--|
G:-10-b12--12-p10-p8------10-b12--10-b12--10-b12--10-b12--10-b12--12-12-12--10-|
D:--------------------10-------------------------------------------------------|
A:-----------------------------------------------------------------------------|
E:-----------------------------------------------------------------------------|
   threshold                                              Beyond      the

<------------------------------Play four times--------------------------------->

F# F   E  F  / / /
       Beyond

F# F   E  F   Csl.C#  Bb
              Beyond

F# F   E  F  / / /
       Beyond

F# F   E  F   C(hold).

PRIDE (Bob Mould)

Chords:

G5 X 10 12 12 X X    E5 X799XX    D#5 X688XX    D5 X577XX

B5 799XXX            C5 X355XX

Intro:

e:-h5-p4-h5-p4-h5-p4-h5-p4-h5-p4-h5-p4-h5-p4-h5-p4--h5-p4-h5-p4-h5-p4--|
B:---------------------------------------------------------------------|
G:---------------------------------------------------------------------|
D:---------------------------------------------------------------------|
A:---------------------------------------------------------------------|
E:---------------------------------------------------------------------|

G5                            E5
Why did you back me into a corner?
G5                               E5
I didn't mean it, it was just an act
G5                                 E5
My friend's outside, can't he come in?
G5                       E5
And everybody else

E5 D#5 E5     E5 D#5  E5     E5 D#5 E5
Stupid pride, selfish pride, stupid pride

E5  D#5 D5 B5  E5         E5   D#5 D5 B5   E5
               Pride                       Pride

E5  D#5 D5 B5  E5         E5   D#5 D5 B5
               Pride

C5
Why does everybody have to be like that?

(*this riff should be played by the bass and
  the final D# should be a whole octave lower)
e:--------------------------------------------|
B:--------------------------------------------|
G:--------------------------------------------|
D:-----------------1*-------------------------|
A:-3---1--------------------------------------|
E:---------3---1------------------------------|

   E
e:-0-----------------------------------------|
B:-0-----------------------------------------|
G:-1-----------------------------------------|
D:-2------------1---------1-----------1---4--|
A:-2--------------4---2-------4---2----------|
E:-0-----------------------------------------|

   E
e:-0-----------------------------|
B:-0-----------------------------|
G:-1-----------------------------|
D:-2-----------------------------|
A:-2-----------------------------|
E:-0-----------------------------|

   G5                                                              E5
e:---------------------------------------------------------------|---------|
B:-8p0h8p0h8p0h8p0h8p0h8p0h8p0h8p0h8p0h8p0h8p0h8p0h8p0h8p0h8p0h8-|---------|
G:---------------------------------------------------------------|-9-------|
D:---------------------------------------------------------------|-9-------|
A:---------------------------------------------------------------|-7-------|
E:---------------------------------------------------------------|---------|
   Pride
   "Out!"       just         an                                    act
   His  parents love him,    they      send          him           money
   But          he           won't     come                        back

<--------------------------Play four times--------------------------------->


E5 D#5 E5     E5 D#5  E5     E5 D#5 E5
Stupid pride, selfish pride, stupid pride

E5  D#5 D5 B5  E5         E5   D#5 D5 B5   E5
               Pride                       Pride

E5  D#5 D5 B5  E5         E5   D#5 D5 B5   C5
               Pride

C5
Why does everybody have to be like that?

   E
e:-0-----------------------------------------|
B:-0-----------------------------------------|
G:-1-----------------------------------------|
D:-2------------1---------1-----------1---4--|
A:-2--------------4---2-------4---2----------|
E:-0-----------------------------------------|

   E
e:-0----------0------0---0---0---|
B:-0----------5-b6---3---5---3---|
G:-1-----------------------------|
D:-2-----------------------------|
A:-2-----------------------------|
E:-0-----------------------------|
   No         reaction,

e:-0------------------5b6---0---0---0-|-0----------------5b6---0---0---0-|
B:-0------------------------3---5---3-|-0----------------------3---5---3-|
G:-1----------------------------------|-1--------------------------------|
D:-2----------------------------------|-2--------------------------------|
A:-2----------------------------------|-2--------------------------------|
E:-0----------------------------------|-0--------------------------------|
   No             Res-ponse             Forget     him

   E                           D#5           E                 D#5
e:-0---------------------------5b6r5b6r5b6-|-5-5-5-5---10-10-b-11--------|
B:-0---------------------------------------|-----------------------------|
G:-1---------------------------------------|-----------------------------|
D:-2---------------------------------------|-----------------------------|
A:-2---------------------------------------|-----------------------------|
E:-0---------------------------------------|-----------------------------|
   Just        forget          him


   E5                           D#5   E5                           D#5
e:-10-10--10-10--10-10--10-10-b-11--|-10-10--10-10--10-10--10-10-b-11--|
B:----------------------------------|----------------------------------|
G:----------------------------------|----------------------------------|
D:----------------------------------|----------------------------------|
A:----------------------------------|----------------------------------|
E:----------------------------------|----------------------------------|

   E5            D#5
e:-4-4-4---5-5---6-b-7-|
B:---------------------|
G:---------------------|
D:---------------------|
A:---------------------|
E:---------------------|

   E5                      D#5     E5                        D#5
e:------------------------------------------------------------------|
B:-1-p-0-h-2-p-0-h-3-p-0-h-4-p-0-h-5-p-h-6-p-0-h-7-p-0-h-8-b-10-r-8-|
G:------------------------------------------------------------------|
D:------------------------------------------------------------------|
A:------------------------------------------------------------------|
E:------------------------------------------------------------------|


   E5      D#5     E5       E C5
e:-0---0---0-------0------|-------------------------------------------------|
B:-6-b-7---4-b-5---4-b-5--|-------------------------------------------------|
G:------------------------|-9-5---------------------5-----------------------|
D:------------------------|-9-5---------------------5-------------------1---|
A:------------------------|-7-3---------------------3---3---1---------------|
E:------------------------|-------------------------------------3---1-------|


   E
e:-0-----------------------------------------|
B:-0-----------------------------------------|
G:-1-----------------------------------------|
D:-2------------1---------1-----------1---4--|
A:-2--------------4---2-------4---2----------|
E:-0-----------------------------------------|


   E     D#5(hold)                                   E(hold)
e:-0---0-------------------------|-------------------0--------------------|
B:-0---0-------------------------|-------------------0--------------------|
G:-1---1-8-----------------------|-------------------1--------------------|
D:-2---2-8-----------------------|-------------------2--------------------|
A:-2---2-6-----------------------|----\-\------------2--------------------|
E:-0---0-------------------------|----\-\------------0--------------------|
                                    Pick scrape


I'LL NEVER FORGET YOU (Bob Mould)

Chords:

G  355XXX    Bb 688XXX   C# 9 11 11 XXX    F X 8 10 10 XX    E  X799XX

Ab 466XXX    D  X577XX   A 577XXX          B 799XXX          D# X688XX

Intro (bass):

   G                          Bb                          G
e:--------------------------|-------------------------------|
B:--------------------------|-------------------------------|
G:--------------------------|-------------------------------|
D:-5-5---5-5---5-5---5---5-/|-8---8-8-8---8-8---8-8---8---5-|
A:-5-5---5-5---5-5---5---5-/|-8---8-8-8---8-8---8-8---8---5-|
E:-3-3---3-3---3-3---3---0--|-6---6-6-6---6-6---6-6---6---3-|

    C#                                         F   B     D#  A       C#    Ab
e:|------------------------------------------|-------------------------------|
B:|------------------------------------------|-------------------------------|
G:|------------------------------------------|-10--------8-----------6-6-----|
D:|-11---11-11-11---11-11---11-11---11-11-11-|-10--9-9---8---7-7---7-6-6---6-|
A:|-11---11-11-11---11-11---11-11---11-11-11-|-8---9-9---6---7-7---7-4-4---6-|
E:|-9----9--9--9----9--9----9--9----9--9--9--|-----7-7-------5-5---5-------4-|

   G                          Bb                          G
e:--------------------------|-------------------------------|
B:--------------------------|-------------------------------|
G:--------------------------|-------------------------------|
D:-5-5---5-5---5-5---5---5-/|-8---8-8-8---8-8---8-8---8---5-|
A:-5-5---5-5---5-5---5---5-/|-8---8-8-8---8-8---8-8---8---5-|
E:-3-3---3-3---3-3---3---0--|-6---6-6-6---6-6---6-6---6---3-|

    C#                                         F   B     D#  A       C#    Ab
e:|------------------------------------------|---------------------0---------|
B:|------------------------------------------|---------------------4-b-5-----|
G:|------------------------------------------|-10--------8-------------------|
D:|-11---11-11-11---11-11---11-11---11-11-11-|-10--9-9---8---7-7-------------|
A:|-11---11-11-11---11-11---11-11---11-11-11-|-8---9-9---6---7-7-------------|
E:|-9----9--9--9----9--9----9--9----9--9--9--|-----7-7-------5-5-------------|

   G                          Bb                          G
e:--------------------------|-------------------------------|
B:--------------------------|-------------------------------|
G:--------------------------|-------------------------------|
D:-5-5---5-5---5-5---5---5-/|-8---8-8-8---8-8---8-8---8---5-|
A:-5-5---5-5---5-5---5---5-/|-8---8-8-8---8-8---8-8---8---5-|
E:-3-3---3-3---3-3---3---0--|-6---6-6-6---6-6---6-6---6---3-|

    C#                                         F   B     D#  A       C#    Ab
e:|------------------------------------------|-------------------------------|
B:|------------------------------------------|-------------------------------|
G:|------------------------------------------|-10--------8-----------6-6-----|
D:|-11---11-11-11---11-11---11-11---11-11-11-|-10--9-9---8---7-7---7-6-6---6-|
A:|-11---11-11-11---11-11---11-11---11-11-11-|-8---9-9---6---7-7---7-4-4---6-|
E:|-9----9--9--9----9--9----9--9----9--9--9--|-----7-7-------5-5---5-------4-|

   F     E                   D       C#                Bb      A
e:-------------------------|-------------------------|-----------------------|
B:-------------------------|-------------------------|-----------------------|
G:-------------------------|-7-7-7---6---6---6---6---|-3-3-3---2-------------|
D:-3-3---2-2-2-2-2-2-2-2---|-7-7-7---6---6---6---6---|-3-3-3---2-------------|
A:-3-3---2-2-2-2-2-2-2-2---|-5-5-5---4---4---4---4---|-1-1-1---0-------------|
E:-1-1---0-0-0-0-0-0-0-0---|-------------------------|-----------------------|

<-------------------------- Played three times ------------------------------>


   F     E                   D       C#        (hold)  Bb      A
e:-------------------------|-------------0-----------|-----------------------|
B:-------------------------|-------------3/5-b-6-----|-----------------------|
G:-------------------------|-7-7-7---6---------------|-----------------------|
D:-3-3---2-2-2-2-2-2-2-2---|-7-7-7---6---------------|-----------------------|
A:-3-3---2-2-2-2-2-2-2-2---|-5-5-5-------------------|-----------------------|
E:-1-1---0-0-0-0-0-0-0-0---|-------------------------|-----------------------|


Verse:

   G                                     Bb                             G
e:-------------------------------------|-----------------------------------|
B:-------------------------------------|-----------------------------------|
G:-------------------------------------|-----------------------------------|
D:-5----5---5----5-----5--5---5-----5-/|-8---8---8---8--8-8-8----8--8---5--|
A:-5----5---5----5-----5--5---5-----5-/|-8---8---8---8--8-8-8----8--8---5--|
E:-3----3---3----3-----3--3---3-----0--|-6---6---6---6--6-6-6----6--6---3--|
   Told you everything I knew about me   Didn't listen to a word I say

   C#                                         F   B     D#  A     C#   Ab
e:------------------------------------------|---------------------0--------|
B:------------------------------------------|---------------------3/5-b-6--|
G:------------------------------------------|-10--------8------------------|
D:-11-11-11-11----11--11---11-11--11-11-11--|-10--9-9---8---7-7------------|
A:-11-11-11-11----11--11---11-11--11-11-11--|-8---9-9---6---7-7------------|
E:-9--9--9--9-----9---9----9--9---9--9--9---|-----7-7-------5-5------------|
   Spill my guts, you just threw them away

   G                                     Bb                             G
e:-------------------------------------|-----------------------------------|
B:-------------------------------------|-----------------------------------|
G:-------------------------------------|-----------------------------------|
D:-5----5---5----5-----5--5---5-----5-/|-8---8---8---8--8-8-8----8--8---5--|
A:-5----5---5----5-----5--5---5-----5-/|-8---8---8---8--8-8-8----8--8---5--|
E:-3----3---3----3-----3--3---3-----0--|-6---6---6---6--6-6-6----6--6---3--|
   Never cared about me                  Only wanted to be your friend,

   C#                                         F   B     D#  A     C#   Ab
e:------------------------------------------|---------------------0--------|
B:------------------------------------------|---------------------3/5-b-6--|
G:------------------------------------------|-10--------8------------------|
D:-11-11-11-11----11--11---11-11--11-11-11--|-10--9-9---8---7-7------------|
A:-11-11-11-11----11--11---11-11--11-11-11--|-8---9-9---6---7-7------------|
E:-9--9--9--9-----9---9----9--9---9--9--9---|-----7-7-------5-5------------|
   Now I know that it's gotta end

   G                                     Bb                             G
e:-------------------------------------|-----------------------------------|
B:-------------------------------------|-----------------------------------|
G:-------------------------------------|-----------------------------------|
D:-5----5---5----5-----5--5---5-----5-/|-8---8---8---8--8-8-8----8--8---5--|
A:-5----5---5----5-----5--5---5-----5-/|-8---8---8---8--8-8-8----8--8---5--|
E:-3----3---3----3-----3--3---3-----0--|-6---6---6---6--6-6-6----6--6---3--|
   Never cared                           a thing    about me

   C#                                         F  B      D#  A       C#   Ab
e:------------------------------------------|------------------------------|
B:------------------------------------------|------------------------------|
G:------------------------------------------|-10--------8------------6-----|
D:-11-11-11-11----11--11---11-11--11-11-11--|-10--9-9---8---7-7------6---6-|
A:-11-11-11-11----11--11---11-11--11-11-11--|-8---9-9---6---7-7------4---6-|
E:-9--9--9--9-----9---9----9--9---9--9--9---|-----7-7-------5-5----------4-|
   and now I will....                         I will    I will

   F     A                   D       C#              A       Ab
e:-------------------------|---------------------------------------------|
B:-------------------------|---------------------------------------------|Play
G:-------------------------|-7-7-7---6---6---6---6-----------------------|three
D:-3-3---2-2-2-2-2-2-2-2---|-7-7-7---6---6---6---6---7-7-7---6-----------|times
A:-3-3---2-2-2-2-2-2-2-2---|-5-5-5---4---4---4---4---7-7-7---6-----------|
E:-1-1---0-0-0-0-0-0-0-0---|-------------------------5-5-5---4-----------|
         I will                  ne- ver             forget
         you,                    I   will            never
         forget                      you,            I will

   F     A                   D       C#              A       Ab
e:-------------------------|-------------------------0-------------------|
B:-------------------------|-------------------------3/5-b-6-------------|
G:-------------------------|-7-7-7---6---6---6---6-----------------------|
D:-3-3---2-2-2-2-2-2-2-2---|-7-7-7---6---6---6---6-----------------------|
A:-3-3---2-2-2-2-2-2-2-2---|-5-5-5---4---4---4---4-----------------------|
E:-1-1---0-0-0-0-0-0-0-0---|---------------------------------------------|
   never                         for-get you


Solo (over Intro riff):

   G                          Bb                          G
e:--------------------------|-------------------------------|
B:--------------------------|-------------------------------|
G:--------------------------|-------------------------------|
D:-5-5---5-5---5-5---5---5-/|-8---8-8-8---8-8---8-8---8---5-|
A:-5-5---5-5---5-5---5---5-/|-8---8-8-8---8-8---8-8---8---5-|
E:-3-3---3-3---3-3---3---0--|-6---6-6-6---6-6---6-6---6---3-|

    C#                                         F   B     D#  A       C#    Ab
e:|------------------------------------------|-------------------------------|
B:|------------------------------------------|-------------------------------|
G:|------------------------------------------|-10--------8-----------6-6-----|
D:|-11---11-11-11---11-11---11-11---11-11-11-|-10--9-9---8---7-7---7-6-6---6-|
A:|-11---11-11-11---11-11---11-11---11-11-11-|-8---9-9---6---7-7---7-4-4---6-|
E:|-9----9--9--9----9--9----9--9----9--9--9--|-----7-7-------5-5---5-------4-|

<-------------------- Play the four bars above three times ------------------>


   F     A                   D       C#              A       Ab
e:-------------------------|---------------------------------------------|
B:-------------------------|---------------------------------------------|Play
G:-------------------------|-7-7-7---6---6---6---6-----------------------|three
D:-3-3---2-2-2-2-2-2-2-2---|-7-7-7---6---6---6---6---7-7-7---6-----------|times
A:-3-3---2-2-2-2-2-2-2-2---|-5-5-5---4---4---4---4---7-7-7---6-----------|
E:-1-1---0-0-0-0-0-0-0-0---|-------------------------5-5-5---4-----------|
         I will                      never
   for - get you                     I will                  never
   for - get you                     I will                  never

   F     A                   D       C#(hold)
e:-------------------------|---------------------------------------------|
B:-------------------------|---------------------------------------------|
G:-------------------------|-7-7-7---6-----------------------------------|
D:-3-3---2-2-2-2-2-2-2-2---|-7-7-7---6-----------------------------------|
A:-3-3---2-2-2-2-2-2-2-2---|-5-5-5---4-----------------------------------|
E:-1-1---0-0-0-0-0-0-0-0---|---------------------------------------------|
   for - get you


Outro (play the four bars below three times):

   G                          Bb                          G
e:--------------------------|-------------------------------|
B:--------------------------|-------------------------------|
G:--------------------------|-------------------------------|
D:-5-5---5-5---5-5---5---5-/|-8---8-8-8---8-8---8-8---8---5-|
A:-5-5---5-5---5-5---5---5-/|-8---8-8-8---8-8---8-8---8---5-|
E:-3-3---3-3---3-3---3---0--|-6---6-6-6---6-6---6-6---6---3-|

    C#                                         F   B     D#  A       C#    Ab
e:|------------------------------------------|---------------------0---------|
B:|------------------------------------------|---------------------4-b-5-----|
G:|------------------------------------------|-10--------8-------------------|
D:|-11---11-11-11---11-11---11-11---11-11-11-|-10--9-9---8---7-7-------------|
A:|-11---11-11-11---11-11---11-11---11-11-11-|-8---9-9---6---7-7-------------|
E:|-9----9--9--9----9--9----9--9----9--9--9--|-----7-7-------5-5-------------|

Then:

    F   B     D#  A       C#    Ab  F   B     D#  A       C#    Ab
e:|---------------------0---------|---------------------0---------|
B:|---------------------4-b-5-----|---------------------4-b-5-----|
G:|-10--------8-------------------|-10--------8-------------------|
D:|-10--9-9---8---7-7-------------|-10--9-9---8---7-7-------------|
A:|-8---9-9---6---7-7-------------|-8---9-9---6---7-7-------------|
E:|-----7-7-------5-5-------------|-----7-7-------5-5-------------|

    F   B     D#  A       C#    Ab  F(hold)
e:|-------------------------------------|
B:|-------------------------------------|
G:|-10--------8-----------6-6-----------|
D:|-10--9-9---8---7-7---7-6-6---6---3---|
A:|-8---9-9---6---7-7---7-4-4---6---3---|
E:|-----7-7-------5-5---5-------4---1---|

TP.

THE BIGGEST LIE (Bob Mould)

Chords:

E5 X799XX    D5 X577XX      C5 X355XX    C#5 X466XX    F#5* X 9 11 11 XX

F#5 244XXX   Asus2 X02200   G#5 466XXX   A5 577XXX     G5 355XXX

Bb5 X133XX


Intro:

E5(hold)  C5(hold)  C#5(hold)  F#5*(hold) - Played four times.

Fast strum:

E5  C5  F#5*  D5  E5  C5  Asus2 - Played twice.

    C#5                  D5                 C#5              G#5
You think you've made it to the top because people know your name,
     A5    F#5
It's still the same
     C#5                 D5           C#5             G#5
Your daydreams aren't forever, better get your shit together
      A5  F#5
For a new game

D5                     F#5
Back to your day job
D5                     F#5
Back to your girlfriend
D5                     F#5
Back to your hometown
    D5
The biggest lie

E5  C5  F#5*  D5

E5  C#5  G5

Bb5  C5  F#5*  D5

A5  C#5  A5 sl. G5

C#5             D5                 C#5               G#5
Passing harsher judgement, but you brought it on yourself
   A5    F#5
By being you
    C#5                 D5              C#5             G#5
You trade your work for no success, you tried to be a hero
        A5  F#5
But you end up nothing

    D5           F#5
The biggest lie, back to your day job
    D5           F#5
The biggest lie, back to your girlfriend
    D5           F#5
The biggest lie, back to your hometown
    D5
The biggest lie, you'll always lie


Then the riff below is played over the following chords:

e:-------------------------|
B:-17-(17)-17--17-(17)-17--|
G:-20b-21--21--20b-21--21--|
D:-------------------------|
A:-------------------------|
E:-------------------------|

E5  C5  F#5*  D5  E5  C#5  G5

E5  C5  F#5*  D5  A5  C#5  A5 sl. G5

E5  C5  F#5*  D5  E5  C#5  G5

Then the riff stops and it ends with the following chords:

E5  C5  F#5*  D5  A5  C#5  A5 sl. G5 (hold).

TP.

WHAT'S GOING ON (Inside My Head) - (Grant Hart)

Chords (NB. LHM = left hand mute):

D5 X577XX    D#5 X688XX    G#5 466XXX    C# X466XX

Intro:

D5 sl. D#5////////////// G#5////////////////

D5 sl. D#5////////////// G#5////////////////

            D5/D#5
      I was talking
                              G#5
      When I should have been listening
D5/D#5                                 G#5
      I didn't hear a word that anyone said
D5/D#5                                 G#5
      It might not have been so very important
D5/D#5                               G#5
      'Cause I was concerned about instead (with)


D#5 LHM
What's going on
D5 LHM
What's going on
C#5 LHM           G#5
What's going on inside my head
D#5 LHM
What's going on
D5 LHM
What's going on
C#5 LHM           G#5
What's going on inside my head

Solo over:

D5/D#5     G#5 (played six times)


D#5 LHM
What's going on
D5 LHM
What's going on
C#5 LHM           G#5
What's going on inside my head
D#5 LHM
What's going on
D5 LHM
What's going on
C#5 LHM           G#5
What's going on inside my head


D5 sl. D#5////////////// G#5////////////////

D5 sl. D#5////////////// G#5////////////////

            D5/D#5
      I was talking
                              G#5
      When I should have been listening
D5/D#5                                 G#5
      I didn't hear a word that anyone said
D5/D#5                                 G#5
      It might not have been so very important
D5/D#5                               G#5
      'Cause I was concerned about instead (with)


D#5 LHM
What's going on
D5 LHM
What's going on
C#5 LHM           G#5
What's going on inside my head
D#5 LHM
What's going on
D5 LHM
What's going on
C#5 LHM           G#5
What's going on inside my head

D#5 LHM
What's going on
D5 LHM
What's going on
C#5 LHM           G#5
What's going on inside my head
D#5 LHM
What's going on
D5 LHM
What's going on
C#5 LHM           G#5
What's going on inside my head


D5/D#5     G#5 (played six times)

D#5(hold)    G#5(hold)

D#5(hold)    G#5(hold)

D#5 LHM
What's going on
D5 LHM
What's going on
C#5 LHM           G#5
What's going on inside my head
D#5 LHM
What's going on
D5 LHM
What's going on
C#5 LHM           G#5
What's going on inside my head


Slowing:

D#5 LHM
What's going on
D5 LHM
What's going on
C#5 LHM           G#5
What's going on inside my head

TP.

MASOCHISM WORLD (Grant Hart - Bob Mould)

Chords:

C5 X355XX    D#5 X688XX    Bb5 X133XX    F5 X8 10 10 XX    G5 X 10 12 12 XX

E5 X799XX    C#5 X466XX

Intro:

C5    D#5    Bb5

C5    D#5    Bb5

C5
Can you feel it feel it feel it
D#5     Bb5
In your soul
C5
Can you tell me
                D#5    Bb5
Tell me if it's hot or cold


C#5/D#5 Bb5
Can you tell me
C#5/ F5 Bb5
what it is
C#5/ F5 Bb5
Does it hurt you
C#5/ F5   Bb5
when I do this

C5    D#5    Bb5

C5    D#5    Bb5

C5
Stop it stop it stop it
       D#5         Bb5
You're pulling too hard
C5
Stop it
       D#5       Bb5
You're going too far


C#5/F5  Bb5
Can you tell me
C#5/D#5 Bb5
what it is
D#5/ F5 Bb5
Does it hurt you
C#5/   D#5 Bb5
when I do  this

Break:

G5    D5  (played four times)
Добавлено: 20.03.2012
Другие материалы по этой песне:
  • Аккорды и текст

Страница создана 11.03.2012
http://primanota.ru/husker-du/zen-arcade-album-chords.htm
Привет, Гость.
Предлагаем пройти революционный курс по гитаре.
Подарок от PrimaNota.Ru, забирай!