PrimaNota.ru - самый крупный в мире бесплатный архив песенных текстов, аккордов, табулатур и нот


Hush Puppies - Single - таба, видео

Регистрация Запомнить меня
Войти через:  Facebook Google Twitter Vk Yandex Mail.ru

Hush Puppies - Single - таба, видео

Печатать
Просмотров: 112
Hushpuppies - Single

tabbed by: inferning blast

Intro: Clean distortion

Listen carefully to the song as you will witness when
the guitar keeps in with this:

PM.                                           --
e-----------------------------------------------------/
B------------------------------------------------8----/
G-----------------------------------------7--------7--/ X2
D--10-12-14-12-10-12-14-12-10-12-14-12--10----10------/
A-----------------------------------------------------/
E-----------------------------------------------------/

Verse: Clean distortion


PM.-----     -----    ---     ----   ----   ---
e-------------------------------------------------|
B-------------------------------------------------|
G--------12--------12-----12-------7------7----7--|
D--------12--------12-----12-------7------7----7--|
A--10-10-----10-10-----10------5-5----5-5----5----|
E-------------------------------------------------|

PM.---    ---   ---   ---     ---   --
e-----------------------------------------/
B-----------------------------------------/
G------9------9----9-------5------5----5--/
D------9------9----9-------5------5----5--/ X2
A--7-7----7-7----7-----3-3----3-3----3----/
E-----------------------------------------/

Chorus: Distortion

It was little hard to hear the notes for abit untill I beleive
these are indeed the close/it notes.

PM.
e-------------------------------------------------------------|
B-------------------------------------------------------------|
G--12-12-12-12-12-12-12-12--7-7-7-7-7-7-7-7-------------------|
D--12-12-12-12-12-12-12-12--7-7-7-7-7-7-7-7--3-3-3-3-3-3-3-3--|
A--10-10-10-10-10-10-10-10--5-5-5-5-5-5-5-5--3-3-3-3-3-3-3-3--|
E--------------------------------------------1-1-1-1-1-1-1-1--|

PM.
e---------------------|
B---------------------|
G---------------------|
D--5-5-5-5--4-4--5-4--|
A--3-3-3-3--2-2--3-2--|
E---------------------|


PM.
e------------------------------------------------------------------------/
B------------------------------------------------------------------------/
G-------------------7-7-7-7-7-7-7-7--------------------------------------/
D--5-5-5-5-5-5-5-5--7-7-7-7-7-7-7-7--3-3-3-3-3-3-3-3--5-5-5-5--4-4--5-4--/
A--5-5-5-5-5-5-5-5--5-5-5-5-5-5-5-5--3-3-3-3-3-3-3-3--3-3-3-3--2-2--3-2--/
E--3-3-3-3-3-3-3-3-------------------1-1-1-1-1-1-1-1---------------------/

Verse: Clean distortion

Nothing different, just have to repeat the whole verse
4 times.

PM.-----     -----    ---     ----   ----   ---
e-------------------------------------------------|
B-------------------------------------------------|
G--------12--------12-----12-------7------7----7--|
D--------12--------12-----12-------7------7----7--|
A--10-10-----10-10-----10------5-5----5-5----5----|
E-------------------------------------------------|

PM.---    ---   ---   ---     ---   --
e-----------------------------------------/
B-----------------------------------------/
G------9------9----9-------5------5----5--/
D------9------9----9-------5------5----5--/ X4
A--7-7----7-7----7-----3-3----3-3----3----/
E-----------------------------------------/


Chorus: Distortion

PM.
e-------------------------------------------------------------|
B-------------------------------------------------------------|
G--12-12-12-12-12-12-12-12--7-7-7-7-7-7-7-7-------------------|
D--12-12-12-12-12-12-12-12--7-7-7-7-7-7-7-7--3-3-3-3-3-3-3-3--|
A--10-10-10-10-10-10-10-10--5-5-5-5-5-5-5-5--3-3-3-3-3-3-3-3--|
E--------------------------------------------1-1-1-1-1-1-1-1--|

PM.
e---------------------|
B---------------------|
G---------------------|
D--5-5-5-5--4-4--5-4--|
A--3-3-3-3--2-2--3-2--|
E---------------------|

PM.
e------------------------------------------------------------------------/
B------------------------------------------------------------------------/
G-------------------7-7-7-7-7-7-7-7--------------------------------------/
D--5-5-5-5-5-5-5-5--7-7-7-7-7-7-7-7--3-3-3-3-3-3-3-3--5-5-5-5--4-4--5-4--/
A--5-5-5-5-5-5-5-5--5-5-5-5-5-5-5-5--3-3-3-3-3-3-3-3--3-3-3-3--2-2--3-2--/
E--3-3-3-3-3-3-3-3-------------------1-1-1-1-1-1-1-1---------------------/

The next stuff would be the bride, unfortunetly my ears aren't fully
functional at this point, so I left this blank untill i get back to
normal.

I will finish this later.

Please vote.
Добавлено: 29.06.2012
Другие материалы по этой песне:
  • Аккорды и текст

Страница создана 29.06.2012
http://primanota.ru/hush-puppies/single-chords.htm
Привет, Гость.
Предлагаем пройти революционный курс по гитаре.
Подарок от PrimaNota.Ru, забирай!