PrimaNota.ru - самый крупный в мире бесплатный архив песенных текстов, аккордов, табулатур и нот


Hush Puppies - Down Down Down - бас-таба, видео

Регистрация Запомнить меня
Войти через:  Facebook Google Twitter Vk Yandex Mail.ru

Hush Puppies - Down Down Down - бас-таба, видео

Печатать
Просмотров: 109
-------------------------------------------------------------------------------
                          Down Down Down - HushPuppies
-------------------------------------------------------------------------------

Tabbed By : superfranki

Tuning: Standard

Intro:
G |------------------------------------------------------------|
D |----------------------------------------------8-------------|
A |-5/10--9--8--9--8h9-9--8h9-10--/17-\9-/15-\8----8-9--/15-13-|
E |------------------------------------------------------------|

G |--------------------------------------------------------------------------|
D |--------------------------------------------------------------------------|
A |-10--/17-15\9--/15-13\8--/15-13-------------------------------------------|
E |--------------------------------11--11--11-11-11--11-10--10--8-5--8-8-5-3-|

G |---------------------------------------------------------------------------|
D |---------12-10----12---------12-10---------------10----12---------12-10----|
A |------10-------12---------10-------12------10-12----12---------10-------12-|
E |-8--8----------------8--8-------------8--8-----------------8-8-------------|

G |--------------------------------------------------------------|
D |--------------------------------------------------------------|
A |--------------------13--12-13---------------------13-13-12-13-|
E |-10--10\6-6-56--10-------------10--10\6-6-56--10--------------|

G |---------------------------------------------------------------------------|
D |---------------------------------------------------------------------------|
A |-15--15--10--8-10-15--15--15--17-15-13-15----------------------13--12--10~-|
E |------------------------------------------10--10\6-6-56-10--10-------------|

Verse 1:
G |------------------|
D |------------------|	x2
A |-10--10-9--9-8--8-|
E |------------------|

Distortion
G |------------------|
D |------------------|	x2
A |-10--10-9--9-8--8-|
E |------------------|

G |-----------------------|
D |-----------------------|	x3
A |-10--10-9--9-8--8-9--9-|
E |-----------------------|

G |------------------------------|
D |------------------------------|
A |-10--10-9--9-8--8/17-15-13-17-|
E |------------------------------|

Chorus 1:
G |-----------------------------------------------|
D |-----------------------------------------------|
A |-------------------------15-13----13-15-13-----|
E |-11-11-11-11-11-11-11-11-------15----------15\-|

G |---------------------------------------------|
D |---------------------------------------------|
A |---------------------------------------------|
E |-10-10-10-10-10-10-10-8-8-10-10-10-8-8-10-10-|

G |-----------------------------------------------|
D |-----------------------------------------------|
A |-------------------------15-13----13-15-13-----|
E |-11-11-11-11-11-11-11-11-------15----------15\-|

G |---------------------------------------------------|
D |---------------------------------------------------|
A |-------------------------/17-17-15-15-13-13-15-15\-|
E |-10-10-10-10-10-10-10-10---------------------------|

Verse 2:
G |--------------------------------------------------------------------------|
D |--------------------------------------------------------------------------|
A |-10-10-10-10-10-10-12-10-9-9-9-9-9-9-12-9-8-8-8-8-8-8-9-8-9-9-9-9-9-8-9-8-|
E |--------------------------------------------------------------------------|

G |--------------------------------------------------------------------------|
D |--------------------------------------------------------------------------| x2
A |-10-10-10-10-10-10-12-10-9-9-9-9-9-9-12-9-8-8-8-8-8-8-9-8-9-9-9-9-9-6-8-9-|
E |--------------------------------------------------------------------------|

G |-------------------------------------------------------------------------------|
D |-------------------------------------------------------------------------------|
A |-10-10-10-10-10-10-12-10-9-9-9-9-9-9-12-9-8-8-8-8-8-8/17-17-15-15-13-13-15-15\-|
E |-------------------------------------------------------------------------------|

Chorus 2:
G |-----------------------------------------------|
D |-----------------------------------------------|
A |-------------------------15-13----13-15-13-----|
E |-11-11-11-11-11-11-11-11-------15----------15\-|

G |---------------------------------------------|
D |---------------------------------------------|
A |---------------------------------------------|
E |-10-10-10-10-10-10-10-8-8-10-10-10-8-8-10-10-|

G |-----------------------------------------------|
D |-----------------------------------------------|
A |-------------------------15-13----13-15-13-----|
E |-11-11-11-11-11-11-11-11-------15----------15\-|

G |-----------------------------------------------------|
D |-----------------------------------------------------|
A |-17-17-17-17-17-17-17-15-17-17-15-15-13-13-15-15-10~-|
E |-----------------------------------------------------|

Interlude, no bass for a while (I guess), then:
G |---------------------------|
D |---------------------------|
A |-/17-17-15-15-13-13-15-15\-|
E |---------------------------|

Chorus 3:
G |-----------------------------------------------|
D |-----------------------------------------------|
A |-------------------------15-13----13-15-13-----|
E |-11-11-11-11-11-11-11-11-------15----------15\-|

G |---------------------------------------------|
D |---------------------------------------------|
A |---------------------------------------------|
E |-10-10-10-10-10-10-10-8-8-10-10-10-8-8-10-10-|

G |-----------------------------------------------|
D |-----------------------------------------------|
A |-------------------------15-13----13-15-13-----|
E |-11-11-11-11-11-11-11-11-------15----------15\-|

G |------------------------------------------------|
D |------------------------------------------------|
A |-------------------------/17-17-17-17-17-17-17\-|
E |-10-10-10-10-10-10-10-10------------------------|

Outro:
G |---------------------------------------------------|
D |-----------------10------------------------8h10-10-| x4
A |----------6-8/10----10\8-6----------6-8-10---------|
E |-8--8-6h8------------------8--8-6h8----------------|

G |---------------------------------------------------------|
D |-----------------10-------------------/10-8----10-8------|
A |----------6-8/10----10\8-6------------------10------10-8-|
E |-8--8-6h8------------------8--8-6h8----------------------|

G |--------------------|
D |-----10-----10---10-| x4
A |--------------------|
E |-8-8----8-8----8----|

G |---------------------|
D |---10---10---10---10-| 
A |---------------------|
E |-8----8----8----8----|

| /  slide up
| \  slide down
| h  hammer-on
| p  pull-off
| ~  vibrato
| +  harmonic
| x  Mute note
===============================================================================
Добавлено: 01.03.2012
Другие материалы по этой песне:

Страница создана 01.03.2012
http://primanota.ru/hush-puppies/down-down-down-chords.htm
Привет, Гость.
Предлагаем пройти революционный курс по гитаре.
Подарок от PrimaNota.Ru, забирай!