PrimaNota.ru - самый крупный в мире бесплатный архив песенных текстов, аккордов, табулатур и нот


Hurtsmile - Slave - бас-таба, видео

Регистрация Запомнить меня
Войти через:  Facebook Google Twitter Vk Yandex Mail.ru

Hurtsmile - Slave - бас-таба, видео

Печатать
Просмотров: 70
                             Slave - Hurtsmile
-------------------------------------------------------------------------------
Tabbed by:jtgray
E-mail: jtgray2011@hotmail.com
http://www.hurtsmile.com/
Tuning:Drop D                   5x
               intro
G|-----------------------------------------------------------------------------|
D|-----------------------------------------------------------------------------|
A|-----------------3--5------------------2--3----------------------------------|
D|3-0-0-3-0-0-3-0--------3-0-0-3-0-0-3-0---------------------------------------|
                                 1x
G|-----------------------------------------------------------------------------|
D|----------------------------------------------3------------------------------|
A|-----------------3--5-------------------0-3-5---5----------------------------|
D|3-0-0-3-0-0-3-0--------3-0-0-3-0-0-3-0---------------------------------------|

  chorus                    2x
G|-----------------------------------------------------------------------------|
D|-----------------------------------------------------------------------------|
A|----3-55---3-55-----3-55---3-55----------------------------------------------|
D|-0-------0-------0-------0---------------------------------------------------|




| /  slide up
| \  slide down
| h  hammer-on
| p  pull-off
| ~  vibrato
| +  harmonic
| x  Mute note
===============================================================================
Добавлено: 31.07.2013
Другие материалы по этой песне:
  • Аккорды и текст

Страница создана 31.07.2013
http://primanota.ru/hurtsmile/slave-chords.htm
Привет, Гость.
Предлагаем пройти революционный курс по гитаре.
Подарок от PrimaNota.Ru, забирай!