PrimaNota.ru - самый крупный в мире бесплатный архив песенных текстов, аккордов, табулатур и нот


Hurt - Talking To God - текст песни, таба, видео

Регистрация Запомнить меня
Войти через:  Facebook Google Twitter Vk Yandex Mail.ru

Hurt - Talking To God - текст песни, таба, видео

Печатать
Просмотров: 112
-------------------------------------------------------------------------------
                             Talking to God(Acoustic) - Hurt
-------------------------------------------------------------------------------  
Tabbed by: WolfbainFox
Email: Thomasgreene101@yahoo.com

Tuning: Half Step Tuning D#,G#,C#,F#,A#D# 
        
Notes: This tab is for 2 acoustic guitars, both in half step tuning, but can still 
be played with only one. It is based off their acoustic performance on youtube.
http://www.youtube.com/watch?v=JtpBP56jvh0

 Intro-Verse
        Guitar 1- J.Loren
e|---------------------------------------------------------------------------|
B|---------------------------------------------------------------------------|
G|------0-----0---------0-----0---------0-----0---------0-----0--------------|
D|----5-----5-----5---5-----5-----5---5-----5-----5---5-----5-----5----------|
A|-/3-----3-----3-------------------3-----3-----3----------------------------|
E|------------------4-----4-----4-------------------4-----4-----4------------|
        Guitar 2- Paul Spatola
e|---------------------------------------------------------------------------|
B|---------------------------------------------------------------------------|
G|------------------------------------------------------0-----0--------------|
D|----------------------------------------------------5-----5----5-----------|
A|---------------------------------------------------------------------------|
E|--------------------------------------------------4-----4-----4------------|
                                        *Second time through Guitar 2 plays next line
e|---------------------------------------------------------------------------|
B|---------------------------------------------------------------------------|
G|------0-----0-----------0-------0-----0-----0-----------0-------0----------|
D|----5-----5-----5-----1-------1-----5-----5-----5-----0-------0------------|
A|--3-----3-----3-----3-------3-----3-----3-----3-----6-------6--------------|
E|------------------4-------4-----------------------4-------4----------------|

        Guitar 1
e|---------------------------------------------------------------------------------|
B|---------------------------------------------------------------------------------|
G|-----0-----0---------0-----0---------0-----0---------0-----0---0-----0-----0---0-|
D|---5-----5-----5---5-----5-----5---5-----5-----5---5-----5---5-----5-----5---5---|
A|-3-----3-----3-------------------3-----3-----3-----------------------------------|
E|-----------------4-----4-----4-------------------4-----4---------4-----4---------| x2
        Guitar 2
e|---------------------------------------------------------------------------------|
B|---------------------------------------------------------------------------------|
G|-----0-----0-----------0-------0-----0-----0-----------0-------0-------0-------0-|
D|---5-----5-----5-----1-------1-----5-----5-----5-----0-------0-------0-------0---|
A|-3-----3-----3-----3-------3-----3-----3-----3-----6-------6-------6-------6-----| x2
E|-----------------4-------4-----------------------4-------4-------4-------4-------|

 Bridge
        Guitar 1
e|----------------------------------------------------------------------------|
B|----------------------------------------------------------------------------|
G|----0--------0--------0--------0---------0--------0--------0-------0--------|
D|--5----5-5-5----5-5-5----5-5-5----5-5--5----5-5-5----5-5-5----5-5-5---5-5---|
A|-3-3----3-3-3----3--------------------3-3----3-3-3----3---------------------| x2
E|-------------------4-4----4-4-4----4--------------------4-4----4--4----4----|
        Guitar 2
e|----------------------------------------------------------------------------|
B|----------------------------------------------------------------------------|
G|-5-5----------------------------------5-5-----------------------------------|
D|-5-5--------------6-6-----------------5-5---------------6-6-----------------|
A|-3-3--------------6-6-----------------3-3---------------6-6-----------------| x2
E|------------------4-4-----------------------------------4-4-----------------|
                                *Second time Guitar 2 up strums, and holds the last chord


        Guitar 2 Pickups into chorus, Guitar 1 silent
e|---------------------------------------------------------------------------|
B|---------------------------------------------------------------------------|
G|---------------------------------------------------------------------------|
D|--6---/8---/10---/12---/13--\8---------------------------------------------|
A|--6---/8---/10---/12---/13--\8---------------------------------------------|
E|--4---/6---/8----/10---/11--\6---------------------------------------------|

 Chorus 
        Guitar 1 
e|---------------------------------------------------------------------------|
B|---------------------------------------------------------------------------|
G|---------------------------------------------------------------------------|
D|---10------------10------------7-------------6-----------------------------|
A|---10------------10------------7-------------7-----------------------------| x2
E|---8-------------0-------------5-------------4-----------------------------|
        Guitar 2
e|---0-------------0-------------0-------------0-----------------------------|
B|---1-------------0-------------1-------------0-----------------------------|
G|---0-------------0-------------2-------------1-----------------------------|
D|---2-------------2-------------2-------------2-----------------------------|
A|---3-------------2-------------0-------------2-----------------------------| x2
E|---3-------------0---------------------------0-----------------------------|

 Verse 2

        Guitar 1
e|---------------------------------------------------------------------------|
B|---------------------------------------------------------------------------|
G|------0-----0---------0-----0---------0-----0---------0-----0--------------|
D|----5-----5-----5---5-----5-----5---5-----5-----5---5-----5-----5----------|
A|-/3-----3-----3-------------------3-----3-----3----------------------------|
E|------------------4-----4-----4-------------------4-----4-----4------------|
        Guitar 2
e|---------------------------------------------------------------------------|
B|---------------------------------------------------------------------------|
G|------0-----0-----------0-------0-----0-----0-----------0-------0----------|
D|----5-----5-----5-----1-------1-----5-----5-----5-----0-------0------------|
A|--3-----3-----3-----3-------3-----3-----3-----3-----6-------6--------------|
E|------------------4-------4-----------------------4-------4----------------|

        Guitar 1
e|---------------------------------------------------------------------------|
B|---------------------------------------------------------------------------|
G|-----0-----0---------0-----0---------0-----0-------------------------------|
D|---5-----5-----5---5-----5-----5---5-----5-----5---5-----------------------|
A|-3-----3-----3-------------------3-----3-----3-----x-----------------------|
E|-----------------4-----4-----4---------------------4-----------------------| 
        Guitar 2
e|---------------------------------------------------------------------------|
B|---------------------------------------------------------------------------|
G|-----0-----0-----------0-------0-----0-----0-------------------------------|
D|---5-----5-----5-----1-------1-----5-----5-----5---6-----------------------|
A|-3-----3-----3-----3-------3-----3-----3-----3-----6-----------------------| 
E|-----------------4-------4-------------------------4-----------------------|
                                *Both Guitars Up strum last chord


        Guitar 1
e|---------------------------------------------------------------------------|
B|---------------------------------------------------------------------------|
G|------0-----0---------0-----0---------0-----0---------0-----0--------------|
D|----5-----5-----5---5-----5-----5---5-----5-----5---5-----5-----5----------|
A|------------------3-----3-----3-------------------3-----3-----3------------| 
E|--4-----4-----4-------------------4-----4-----4----------------------------|
        Guitar 2
e|---------------------------------------------------------------------------|
B|---------------------------------------------------------------------------|
G|--------0-------0-----0-----0---------0-----0---------0-----0--------------|
D|------0-------0---------------------8-----8-----8---5-----5-----5----------|
A|----6-------6------11----11----11-----------------3-----3-----3------------| 
E|--4-------4-------8-----8-----8---8-----8-----8----------------------------|

        Guitar 1
e|------------------------------------------------------------------|-----------------|
B|------------------------------------------------------------------|-----------------|
G|------0-----0---------0-----0---------0-----0---------0-----0-----|-----0-----0---0-|
D|----5-----5-----5---5-----5-----5---5-----5-----5---5-----5-----5-|---5-----5---5---|
A|------------------3-----3-----3-------------------3-----3-----3---|-----------------| 
E|--4-----4-----4-------------------4-----4-----4-------------------|-4-----4---------|
        Guitar 2                                        *play last bar 2 times
e|------------------------------------------------------------------|-----------------|
B|------------------------------------------------------------------|-----------------|
G|--------0-------0-----0-----0-----------0-------0-----0-----0-----|-------0-------0-|
D|------0-------0-----5-----5-----5-----0-------0-----5-----5-----5-|-----0-------0---|
A|----6-------6-----3-----3-----3-----6-------6-----3-----3-----3---|---6-------6-----|
E|--4-------4-----------------------4-------4-----------------------|-4-------4-------|

 Bridge
        Guitar 1
e|----------------------------------------------------------------------------|
B|----------------------------------------------------------------------------|
G|----0--------0--------0--------0---------0--------0--------0-------0--------|
D|--5----5-5-5----5-5-5----5-5-5----5-5--5----5-5-5----5-5-5----5-5-5---5-5---|
A|-3-3----3-3-3----3--------------------3-3----3-3-3----3---------------------| x2
E|-------------------4-4----4-4-4----4--------------------4-4----4--4----4----|
        Guitar 2
e|----------------------------------------------------------------------------|
B|----------------------------------------------------------------------------|
G|-5555---------------------------------5555----------------------------------|
D|-5555--5-5-5------6666----------------5555--5-5-5-------6666----------------|
A|-3333-3-3-3-3-----6666--6-6-6---------3333-3-3-3-3------6666--6-6-6---------| x2
E|------------------4444-4-4-4-4--------------------------4444-4-4-4-4--------|
                                
 Pre Solo
        Guitar 1
e|---------------------------------------------------------------------------|
B|---------------------------------------------------------------------------|
G|---------------------------------------------------------------------------|
D|---5-5-5-5-5-5-5-5-5-5-5-5-5-5---------------------------------------------|
A|--3-3-3-3-3-3-3-3-3-3-3-3-3-3----------------------------------------------|
E|---------------------------------------------------------------------------|
        Guitar 2
e|---------------------------------------------------------------------------|
B|---------------------------------------------------------------------------|
G|---------------------------------------------------------------------------|
D|--6---/8---/10---/12---/13--\8---------------------------------------------|
A|--6---/8---/10---/12---/13--\8---------------------------------------------|
E|--4---/6---/8----/10---/11--\6---------------------------------------------|
                        *pause after the last chord before starting the solo

        Guitar 1- Chorus Chords
e|---------------------------------------------------------------------------|
B|---------------------------------------------------------------------------|
G|---------------------------------------------------------------------------|
D|---10------------10------------7-------------6-----------------------------|
A|---10------------10------------7-------------7-----------------------------|
E|---8-------------0-------------5-------------4-----------------------------|
        Guitar 2- Solo
e|---------------------------------------------------------------------------|
B|-----------------------------------------9---------------------------------|
G|---5~~~--/5-7-9—7/9------------4-5-7---------------------------------------|
D|---------------------------------------------------------------------------|
A|---------------------------------------------------------------------------|
E|---------------------------------------------------------------------------|

e|---------------------------------------------------------------------------|
B|---------------------------------------------------------------------------|
G|---5~~~--/5-7-9—7/9------------7\5--5---4-5-7------------------------------|
D|---------------------------------------------------------------------------|
A|---------------------------------------------------------------------------|
E|---------------------------------------------------------------------------|

Chorus 
        Guitar 1 
e|------------------------------------------------------------------|---0------|
B|------------------------------------------------------------------|---1------|
G|------------------------------------------------------------------|---0------|
D|---10------------10------------7-------------6--------------------|---2------|
A|---10------------10------------7-------------7--------------------|---3------| x4
E|---8-------------0-------------5-------------4--------------------|---x------|
        Guitar 2
e|---0-------------0-------------0-------------0--------------------|---0------|
B|---1-------------0-------------1-------------0--------------------|---1------|
G|---0-------------0-------------2-------------1--------------------|---0------|
D|---2-------------2-------------2-------------2--------------------|---2------|
A|---3-------------2-------------0-------------2--------------------|---3------| x4
E|---3-------------0---------------------------0--------------------|---x------|

*Outro
        Guitar 1                
e|---------------------------------------------------------------------------|
B|---------------------------------------------------------------------------|
G|---5-------5-4-------4-2-------2-/4-------4--------------------------------|
D|----5-----5-5-5-----5-5-3-----3-3/-5-----5-5-------------------------------|
A|---------------------------------------------------------------------------|
E|---------------------------------------------------------------------------|
        Guitar 2
e|---8---10-10b12r10-8-10----8-10b12r10-8-10-----8-10b12r10-8-------------15/17\15-----|
B|-----------------------8------------------10----------------10/12-13-15--------------|
G|-------------------------------------------------------------------------------------|
D|-------------------------------------------------------------------------------------|
A|-------------------------------------------------------------------------------------|
E|-------------------------------------------------------------------------------------|

        Guitar 1
e|---------------------------------------------------------------------------|
B|---------------------------------------------------------------------------|
G|---5-------5-4-------4-2-------2-/4-2-----0--2-----------------------------|
D|----5-----5-5-5-----5-5-3-----3-3/-5-3-----2--0----------------------------|
A|---------------------------------------------------------------------------|
E|---------------------------------------------------------------------------|  
        Guitar 2
e|--------8/10\8-10/12--15-12\10-8/10-8---10b12r10-8-10b12~~r10-8--10--------|
B|---8-10--------------------------------------------------------------------|
G|---------------------------------------------------------------------------|
D|---------------------------------------------------------------------------|
A|---------------------------------------------------------------------------|
E|---------------------------------------------------------------------------|

        The End-Thank you
************************************

| /   slide up
| \   slide down
| h   hammer-on
| p   pull-off
| ~   vibrato
| +   harmonic
| x   Mute note
| b   Bend
| pb  Pre-bend
| br  Bend release
| pbr Pre-bend release
| brb Bend release bend

************************************

Добавлено: 09.09.2013
Другие материалы по этой песне:
  • Аккорды и текст

Страница создана 25.02.2012
http://primanota.ru/hurt/talking-to-god-chords.htm
Привет, Гость.
Предлагаем пройти революционный курс по гитаре.
Подарок от PrimaNota.Ru, забирай!