PrimaNota.ru - самый крупный в мире бесплатный архив песенных текстов, аккордов, табулатур и нот


Hurt - Pandora - текст песни, таба, бас-таба, видео

Регистрация Запомнить меня
Войти через:  Facebook Google Twitter Vk Yandex Mail.ru

Hurt - Pandora - текст песни, таба, бас-таба, видео

Печатать
Просмотров: 182
HURT - PANDORA 
tuning - drop D
the song can be played in standard tuning; just take the 6th string's 
fingering and move it down 2 frets

~ - hold
v - vibrato
b - bend
r - return bend
/ - slide up
                                                                     =
E|--3-0-0-3~-0-3-0-3-0-0-3~-0-3-0-2-0-0-2~-0-2-0-2-----2~---2----|    |
B|-------------------------------------------------0-0----0---0--|    |
G|---------------------------------------------------------------|    |
D|---------------------------------------------------------------|    |
A|---------------------------------------------------------------|    |
D|---------------------------------------------------------------|    |
                                                                      |x2
E|--3-0-0-3~-0-3-0-3-0-0-3~-0-3-0-2-0-0-2~-0-2-0-5-0-0-5~-0-5-0--|    |
B|---------------------------------------------------------------|    |
G|---------------------------------------------------------------|    |
D|---------------------------------------------------------------|    |
A|---------------------------------------------------------------|    |
D|---------------------------------------------------------------|    |
                                                                     =
E|--5-3-5-3-5-3-5-3--|x4  |---------|
B|-------------------|    |---------|
G|-------------------|    |---------|
D|-------------------|    |--9------|
A|-------------------|    |--9-x32--|
D|-------------------|    |--9------|
                                                                     =
E|--3-0-0-3~-0-3-0-3-0-0-3~-0-3-0-2-0-0-2~-0-2-0-2-----2~---2----|    |
B|-------------------------------------------------0-0----0---0--|    |
G|---------------------------------------------------------------|    |
D|---------------------------------------------------------------|    |
A|---------------------------------------------------------------|    |
D|---------------------------------------------------------------|    |
                                                                      |x2
E|--3-0-0-3~-0-3-0-3-0-0-3~-0-3-0-2-0-0-2~-0-2-0-5-0-0-5~-0-5-0--|    |
B|---------------------------------------------------------------|    |
G|---------------------------------------------------------------|    |
D|---------------------------------------------------------------|    |
A|---------------------------------------------------------------|    |
D|---------------------------------------------------------------|    |
                                                                     =
E|--5-3-5-3-5-3-5-3--|x4
B|-------------------|
G|-------------------|
D|-------------------|
A|-------------------|
D|-------------------|

E|------------------------------------------------------------------------|x2
B|------------------------------------------------------------------------|
G|--------------5-----5~--------5-----4~--------5-----5~--------5-----4~--|
D|--9-----2-2-2-5-2-2-5~--2-2-2-5-2-2-4~--2-2-2-5-2-2-5~--2-2-2-5-2-2-4~--|
A|--9-x32-2-2-2---2-2-----2-2-2---2-2-----2-2-2---2-2-----2-2-2---2-2-----|
D|--9-----2-2-2---2-2-----2-2-2---2-2-----2-2-2---2-2-----2-2-2---2-2-----|

E|-------------|
B|-------------|
G|-------------|
D|--9------2~--|
A|--9-x32--2~--|
D|--9------2~--|

                                                                     =
E|--3-0-0-3~-0-3-0-3-0-0-3~-0-3-0-2-0-0-2~-0-2-0-2-----2~---2----|    |
B|-------------------------------------------------0-0----0---0--|    |
G|---------------------------------------------------------------|    |
D|---------------------------------------------------------------|    |
A|---------------------------------------------------------------|    |
D|---------------------------------------------------------------|    |
                                                                      |x3
E|--3-0-0-3~-0-3-0-3-0-0-3~-0-3-0-2-0-0-2~-0-2-0-5-0-0-5~-0-5-0--|    |
B|---------------------------------------------------------------|    |
G|---------------------------------------------------------------|    |
D|---------------------------------------------------------------|    |
A|---------------------------------------------------------------|    |
D|---------------------------------------------------------------|    |
                                                                     =
E|--5-3-5-3-5-3-5-3--|x4
B|-------------------|
G|-------------------|
D|-------------------|
A|-------------------|
D|-------------------|

E|------------------------------------------------------------------------|x2
B|------------------------------------------------------------------------|
G|--------------5-----5~--------5-----4~--------5-----5~--------5-----4~--|
D|--9-----2-2-2-5-2-2-5~--2-2-2-5-2-2-4~--2-2-2-5-2-2-5~--2-2-2-5-2-2-4~--|
A|--9-x32-2-2-2---2-2-----2-2-2---2-2-----2-2-2---2-2-----2-2-2---2-2-----|
D|--9-----2-2-2---2-2-----2-2-2---2-2-----2-2-2---2-2-----2-2-2---2-2-----|

E|-------------|
B|-------------|
G|-------------|
D|--9------2~--|
A|--9-x32--2~--|
D|--9------2~--|

the rest of this song is not a guitar; however, i tabbed the non piano part 
over for the guitar

E|-----------------------------------------------------------------|
B|-----------------------------------------------------------------|
G|--4-5-4-3-4-5v-4v---4-5-4-3-4-9v-7-5v-4v---1b-5-7-8-8v---9v-11v--|
D|-----------------------------------------------------------------|
A|-----------------------------------------------------------------|
D|-----------------------------------------------------------------|

E|-------------------------------------------------------------------------------------|
B|-------------------------------------------------------------------------------------|
G|--12-11-9-11-12-14-11-12-11-9-11-9-7-5-4-5-4v---13v--14--16--17-16-15-16-17v-16-16v--|
D|-------------------------------------------------------------------------------------|
A|-------------------------------------------------------------------------------------|
D|-------------------------------------------------------------------------------------|

E|-----19----17----15----14----15----14v--------------------|
B|----------------------------------------17-15-12-12/15v---|
G|--16----16----16----16----16----16------------------------|
D|----------------------------------------------------------|
A|----------------------------------------------------------|
D|----------------------------------------------------------|

E|-----------------------------------|
B|-----------------------------------|
G|--8b--11-13-11-14-14b-r-12-8v--8v--|
D|-----------------------------------|
A|-----------------------------------|
D|-----------------------------------|

E|--------------------------------------------------------------|
B|--------------------------------------------------------------|
G|--/16-14-16-14-/19-17-16-17-16-14-16-14-12-11-12-11-11v---9v--|
D|--------------------------------------------------------------|
A|--------------------------------------------------------------|
D|--------------------------------------------------------------|
Добавлено: 10.04.2012
Другие материалы по этой песне:
  • Аккорды и текст

Страница создана 12.03.2012
http://primanota.ru/hurt/pandora-chords.htm
Привет, Гость.
Предлагаем пройти революционный курс по гитаре.
Подарок от PrimaNota.Ru, забирай!