PrimaNota.ru - самый крупный в мире бесплатный архив песенных текстов, аккордов, табулатур и нот


Hurt - Aftermath - текст песни, таба, видео

Регистрация Запомнить меня
Войти через:  Facebook Google Twitter Vk Yandex Mail.ru

Hurt - Aftermath - текст песни, таба, видео

Печатать
Просмотров: 180
-------------------------------------------------------------------------------------
			        Aftermath - Hurt
-------------------------------------------------------------------------------------
Tabbed by: jhawk

*I decided to redo this after watching a few live performances of this song.

*The piano is yet to come, but I hope to get to that in the not too distant future.

Tuning: (Db, Ab, Db, Gb, Bb, eb)

_______Guitars_______
Gtr.   I = Acoustic
Gtr.  II = Acoustic
Gtr. III = Acoustic
Gtr.  IV = Piano (Arranged for Clean Electric)			
				
| /  Slide up							
| \  Slide down							
| h  Hammer-on				
| b  Bend				
| r  Release
| p  Pull-off
| ~  Vibrato
| +  Harmonic
| x  Mute note
| *  Staccato



    Gtr. I (Acoustic)                     2x
eb|-------------------|-------------------|-------------------|-------------------|
Bb|-------------------|-------------------|-------------------|-------------------|
Gb|-10--10-x-x--5---5-|-12--12-x-x--7---7-|-10--10-x-x--5--5-5|-7-----------------|
Db|-10--10-x-x--5---5-|-12--12-x-x--7---7-|-10--10-x-x--5--5-5|-7-----------------|
Ab|-8---8--x-x--3---3-|-10--10-x-x--5---5-|-8---8--x-x--3--3-3|-5-----------------|
Db|-8---8--x-x--3---3-|-10--10-x-x--5---5-|-8---8--x-x--3--3-3|-5-----------------|
   

    Gtr. I (Acoustic)                                         
eb|-------------------|-------------------|-------------------|-------------------|
Bb|-------------------|-------------------|-------------------|-------------------|
Gb|-10--10-x-x--5---5-|-12--12-x-x--7---7-|-10--10-x-x--5--5-5|-7-----------------|
Db|-10--10-x-x--5---5-|-12--12-x-x--7---7-|-10--10-x-x--5--5-5|-7-----------------|
Ab|-8---8--x-x--3---3-|-10--10-x-x--5---5-|-8---8--x-x--3--3-3|-5-----------------|
Db|-8---8--x-x--3---3-|-10--10-x-x--5---5-|-8---8--x-x--3--3-3|-5-----------------|
  |                                                                               |
  |                                                                               |
  | Gtr. II (Acoustic) Mimics Vocals                                              |
eb|-------------------|-------------------|-------------------|-------------------|
Bb|---------------------------------------|---------------------------------------|
Gb|-----------------------7---------------|---------------------------------------|
Db|-7---8p7-----------10-----10--8--7-----|-7--8--7-------------------------------|
Ab|-----------10--8--------------------8--|----------10--8--8--10-----------------|
Db|-------------------|-------------------|-------------------|-------------------|
                                          
 
    Gtr. I (Acoustic)                                         
eb|-------------------|-------------------|-------------------|-------------------|
Bb|-------------------|-------------------|-------------------|-------------------|
Gb|-10--10-x-x--5---5-|-12--12-x-x--7---7-|-10--10-x-x--5--5-5|-7-----------------|
Db|-10--10-x-x--5---5-|-12--12-x-x--7---7-|-10--10-x-x--5--5-5|-7-----------------|
Ab|-8---8--x-x--3---3-|-10--10-x-x--5---5-|-8---8--x-x--3--3-3|-5-----------------|
Db|-8---8--x-x--3---3-|-10--10-x-x--5---5-|-8---8--x-x--3--3-3|-5-----------------|
  |                                                                               |
  |                                                                               |
  | Gtr. II (Acoustic) Mimics Vocals                                              |
eb|-------------------|-------------------|-------------------|-------------------|
Bb|---------------------------------------|---------------------------------------|
Gb|-----------------------7---------------|---------------------------------------|
Db|-7---8p7-----------10-----10--8--7-----|-7--8--7-------------------------------|
Ab|-----------10--8--------------------8--|----------10--8--8--10-----------------|
Db|-------------------|-------------------|-------------------|-------------------|
                                             
  
    Gtr. I (Acoustic)                                                           x2
eb|-------------------|-------------------|-------------------|-------------------|
Bb|-----------------------------------------------------------|-------------------|
Gb|-----------------------------------------------------------|-------------------|
Db|-----------------------------------------------------------|-------------------|
Ab|-5-----5---------------------------------------5-----------|-------------------|
Db|-5-----------------|-------------------|-------------------|-------------------|
  |	  + <--skip harmonic 1st time>            +                               |
  |        				   	      		                  |
  | Gtr. II (Acoustic)                                                          x2|
eb|-------------------|-------------------|-------------------|-------------------|
Bb|---------------------------------------|---------------------------------------|
Gb|---------------------------------------|---------------------------------------|
Db|-------3--2---2~~------3--2------------|-------3--2---2~~------3--2------------|
Ab|-3--5------------3--5--------3--5---5~~|-3--5------------3--5--------3--5---5~~|
Db|-------------------|-------------------|-------------------|-------------------|
             *                     *                 *                     *

    Gtr. I (Acoustic)                                                           x3
eb|-------------------|-------------------|-------------------|-------------------|
Bb|-----------------------------------------------------------|-------------------|
Gb|-----------------------------------------------------------|-------------------|
Db|-----------------------------------------------------------|-------------------|
Ab|-------5---------------------------------------5-----------|-------------------|
Db|-------------------|-------------------|-------------------|-------------------|
  |	  +                                       +                               |
  |        				   	      		                  |
  | Gtr. II (Acoustic)                                                          x3|
eb|-------------------|-------------------|-------------------|-------------------|
Bb|---------------------------------------|---------------------------------------|
Gb|---------------------------------------|---------------------------------------|
Db|-------3--2---2~~------3--2------------|-------3--2---2~~------3--2------------|
Ab|-3--5------------3--5--------3--5---5~~|-3--5------------3--5--------3--5---5~~|
Db|-------------------|-------------------|-------------------|-------------------|
  |          *                     *                 *                     *      |
  |                                                                               |
  | Gtr. III (Acoustic)                                                         x3|
eb|-------------------|-------------------|-------------------|-------------------|
Bb|-------------------|-------------------|-------------------|-------------------|
Gb|-------------------|-------------------|-------------------|-------------------|
Db|-12b13r12--12---10-|-12b13r12--12---10-|-12b13r12--12---10-|-12b13r12--12---10-|
Ab|-------------------|-------------------|-------------------|-------------------|
Db|-------------------|-------------------|-------------------|-------------------|
  |                                                                               |
  |                                                                               |
  | Gtr. IV (Piano)                                                             x3|
eb|-------------------|-------------------|-------------------|-------------------|
Bb|---------------------------------------|---------------------------------------|
Gb|----------------------work in progress-|---------------------------------------|
Db|---------------------------------------|---------------------------------------|
Ab|---------------------------------------|---------------------------------------|
Db|-------------------|-------------------|-------------------|-------------------|

 
  ...anything to be with you
eb|-------------------|-------------------|-------------------|-------------------|
Bb|---------------------------------------|---------------------------------------|
Gb|-7-------------------------------------|---------------------------------------|
Db|-7-------------------------------------|---------------------------------------|
Ab|-5-------------------------------------|---------------------------------------|
Db|-5-----------------|-------------------|-------------------|-------------------|

                                                                         
    Gtr. I (Acoustic)             			                        x7
eb|-------------------|-------------------|-------------------|-------------------|
Bb|-----------------------------------------------------------|-------------------|
Gb|-----------------------------------------------------------|-------------------|
Db|-----------------------------------------------------------|-------------------|
Ab|-------5---------------------------------------5-----------|-------------------|
Db|-------------------|-------------------|-------------------|-------------------|
  |	  +                                       +                               |
  |									          |
  | Gtr. II (Acoustic)							        x7|
eb|-------------------|-------------------|-------------------|-------------------|
Bb|-------------------|-------------------|-------------------|-------------------|
Gb|-------------------|-------------------|-------------------|-------------------|
Db|-3-3-3-3-3-3-3-3-xx|-5-5-5-5-5-5-5-5-xx|-7-7-7-7-7-7-7-7-xx|-1010101010101010xx|
Ab|-1-1-1-1-1-1-1-1-xx|-3-3-3-3-3-3-3-3-xx|-5-5-5-5-5-5-5-5-xx|-8-8-8-8-8-8-8-8-xx|
Db|-1-1-1-1-1-1-1-1-xx|-3-3-3-3-3-3-3-3-xx|-5-5-5-5-5-5-5-5-xx|-8-8-8-8-8-8-8-8-xx|
  |pm..........................................................................   |
  |                    |
  | Gtr. IV (Piano)                                                               |
eb|-------------------|-------------------|-------------------|-------------------|
Bb|---------------------------------------|---------------------------------------|
Gb|----------------------work in progress-|---------------------------------------|
Db|---------------------------------------|---------------------------------------|
Ab|---------------------------------------|---------------------------------------|
Db|-------------------|-------------------|-------------------|-------------------|


    Gtr. II (Acoustic)
eb|-------------------|-------------------|-------------------|-------------------|
Bb|-------------------|-------------------|-------------------|-------------------|
Gb|-------------------|-------------------|-------------------|-------------------|
Db|-3-3-3-3-3-3-3-3---|-5-5-5-5-5-5-5-5---|-------------------|-------------------|
Ab|-1-1-1-1-1-1-1-1---|-3-3-3-3-3-3-3-3---|-------------------|-------------------|
Db|-1-1-1-1-1-1-1-1---|-3-3-3-3-3-3-3-3---|-------------------|-------------------|
  |                                   *                                           |
  |                                                                               |
  | Gtr. IV (Piano)                                                               |
eb|-------------------|-------------------|-------------------|-------------------|
Bb|---------------------------------------|---------------------------------------|
Gb|----------------------work in progress-|---------------------------------------|
Db|---------------------------------------|---------------------------------------|
Ab|---------------------------------------|---------------------------------------|
Db|-------------------|-------------------|-------------------|-------------------|

===================================================================================
Добавлено: 14.04.2012
Другие материалы по этой песне:
  • Аккорды и текст

Страница создана 04.03.2012
http://primanota.ru/hurt/aftermath-chords.htm
Привет, Гость.
Предлагаем пройти революционный курс по гитаре.
Подарок от PrimaNota.Ru, забирай!