PrimaNota.ru - самый крупный в мире бесплатный архив песенных текстов, аккордов, табулатур и нот


Hurriganes - Mary Jane - текст песни, таба, видео

Регистрация Запомнить меня
Войти через:  Facebook Google Twitter Vk Yandex Mail.ru

Hurriganes - Mary Jane - текст песни, таба, видео

Печатать
Просмотров: 68
Hurriganes- Mary Jane                                     

Tabbed by larmo

Gtr.1

     W                   W                   W                 
E||-------------------|-------------------|-------------------|
B||-------------------|-------------------|-------------------|
G||-------------------|-------------------|-------------------|
D||-------------------|-------------------|-------------------|
A||-------------------|-------------------|-------------------|
E||-------------------|-------------------|-------------------|


  W                   E   E  E  E  H           Q    H.            
-------------------|------------------------|--------------------|
-------------------|------------------------|--------------------|
-------------------|---------7--5--L--------|--L-----------------|
-------------------|--5------7--5--L--------|--L-----------------|
-------------------|--5--/9-----------------|--------------------|
-------------------|------------------------|--------------------|


  E   E  E  E  H           Q    H.              E   E  E  E  H         
------------------------|--------------------|------------------------|
------------------------|--------------------|------------------------|
---------7--5--L--------|--L-----------------|---------7--5--L--------|
--5------7--5--L--------|--L-----------------|--5------7--5--L--------|
--5--/9-----------------|--------------------|--5--/9-----------------|
------------------------|--------------------|------------------------|


  Q    H.              E   E  E  E  H           E  Q    Q    Q    E   
--------------------|------------------------|-----------------------|
--------------------|------------------------|-----------------------|
--L-----------------|---------7--5--L--------|--7--------------------|
--L-----------------|--5------7--5--L--------|--7--------------------|
--------------------|--5--/9-----------------|-----------------------|
--------------------|------------------------|-----2----3----4----5--|


    E  E  E  E  E  E  E  E     E  E  E  E  E  E  E  E   
|---------------------------|--------------------------|
|---------------------------|--------------------------|
|*--------------------------|--------------------------|
|*--7--7--9--7--7--7--9--7--|--7--7--9--7--7--7--9--7--|
|---5--5--5--5--5--5--5--5--|--5--5--5--5--5--5--5--5--|
|---------------------------|--------------------------|


  E  E  E  E  E  E  E  E     E  E  E  E  E  E  E  E   
--------------------------|--------------------------|
--------------------------|--------------------------|
--------------------------|--------------------------|
--------------------------|--------------------------|
--5--5--7--5--5--5--7--5--|--5--5--7--5--5--5--7--5--|
--3--3--3--3--3--3--3--3--|--3--3--3--3--3--3--3--3--|


  E  E  E  E  E  E  E  E     E  E  E  E  E  E  E  E   
--------------------------|--------------------------|
--------------------------|--------------------------|
--------------------------|--------------------------|
--------------------------|--------------------------|
--7--7--9--7--7--7--9--7--|--7--7--9--7--7--7--9--7--|
--5--5--5--5--5--5--5--5--|--5--5--5--5--5--5--5--5--|


  E  E  E  E  E  E  E  E     E  E  E  E  E  E  E  E   
--------------------------|--------------------------|
--------------------------|--------------------------|
--------------------------|--------------------------|
--7--7--9--7--7--7--9--7--|--------------------------|
--5--5--5--5--5--5--5--5--|-----7--7--7--7--7--7--7--|
--------------------------|-----5--5--5--5--5--5--5--|


  E  E  E  E  E  E  E  E     E  E  E  E  E  E  E  E   
--------------------------|--------------------------|
--------------------------|--------------------------|
--------------------------|--------------------------|
--7--7--9--7--7--7--9--7--|--7--7--9--7--7--7--9--7--|
--5--5--5--5--5--5--5--5--|--5--5--5--5--5--5--5--5--|
--------------------------|--------------------------|


  E  E  E  E  E  E  E  E     E  E  E  E  E  E  E  E   
--------------------------|--------------------------|
--------------------------|--------------------------|
--------------------------|--------------------------|
--------------------------|--------------------------|
--5--5--7--5--5--5--7--5--|--5--5--7--5--5--5--7--5--|
--3--3--3--3--3--3--3--3--|--3--3--3--3--3--3--3--3--|


  E  E  E  E  E  E  E  E     E  E  E  E  E  E  E  E   
--------------------------|--------------------------|
--------------------------|--------------------------|
--------------------------|--------------------------|
--------------------------|--------------------------|
--7--7--9--7--7--7--9--7--|--7--7--9--7--7--7--9--7--|
--5--5--5--5--5--5--5--5--|--5--5--5--5--5--5--5--5--|


  E  E  E  E  E  E  E  E     E  E  E  E  E  E  E  E   
--------------------------|--------------------------|
--------------------------|--------------------------|
--------------------------|--------------------------|
--7--7--9--7--7--7--9--7--|--------------------------|
--5--5--5--5--5--5--5--5--|-----7--7--7--7--7--7--7--|
--------------------------|-----5--5--5--5--5--5--5--|


  E  E  E  E  E  E  E  E     E  E  E  E  E  E  E  E   
--------------------------|--------------------------|
--------------------------|--------------------------|
--------------------------|--------------------------|
--7--7--9--7--7--7--9--7--|--7--7--9--7--7--7--9--7--|
--5--5--5--5--5--5--5--5--|--5--5--5--5--5--5--5--5--|
--------------------------|--------------------------|


  E  E  E  E  E  E  E  E     E  E  E  E  E  E  E  E   
--------------------------|--------------------------|
--------------------------|--------------------------|
--------------------------|--------------------------|
--------------------------|--------------------------|
--5--5--7--5--5--5--7--5--|--5--5--7--5--5--5--7--5--|
--3--3--3--3--3--3--3--3--|--3--3--3--3--3--3--3--3--|


  E  E  E  E  E  E  E  E     E  E  E  E  E  E  E  E   
--------------------------|--------------------------|
--------------------------|--------------------------|
--------------------------|--------------------------|
--------------------------|--------------------------|
--2--2--4--2--2--2--4--2--|--2--2--4--2--2--2--4--2--|
--0--0--0--0--0--0--0--0--|--0--0--0--0--0--0--0--0--|


  E  E  E  E  E  E  E  E     E  E  E  E  E  E  E  E   
--------------------------|--------------------------|
--------------------------|--------------------------|
--------------------------|--------------------------|
--------------------------|--------------------------|
--7--7--9--7--7--7--9--7--|--7--7--9--7--7--7--9--7--|
--5--5--5--5--5--5--5--5--|--5--5--5--5--5--5--5--5--|


  E  E  E  E  E  E  E  E     E  E  E  E  E  E  E  E   
--------------------------|--------------------------|
--------------------------|--------------------------|
--------------------------|--------------------------|
--7--7--9--7--7--7--9--7--|--7--7--9--7--7--7--9--7--|
--5--5--5--5--5--5--5--5--|--5--5--5--5--5--5--5--5--|
--------------------------|--------------------------|


  E  E  E  E  E  E  E  E     E  E  E  E  E  E  E  E   
--------------------------|--------------------------|
--------------------------|--------------------------|
--------------------------|--------------------------|
--------------------------|--------------------------|
--5--5--7--5--5--5--7--5--|--5--5--7--5--5--5--7--5--|
--3--3--3--3--3--3--3--3--|--3--3--3--3--3--3--3--3--|


  E  E  E  E  E  E  E  E     E  E  E  E  E  E  E  E   
--------------------------|--------------------------|
--------------------------|--------------------------|
--------------------------|--------------------------|
--------------------------|--------------------------|
--2--2--4--2--2--2--4--2--|--2--2--4--2--2--2--4--2--|
--0--0--0--0--0--0--0--0--|--0--0--0--0--0--0--0--0--|


  E  E  E  E  E  E  E  E     E  E  E  E  E  E  E  E     
--------------------------|---------------------------||
--------------------------|---------------------------||
--------------------------|--------------------------*||
--------------------------|--------------------------*||
--7--7--9--7--7--7--9--7--|--7--7--9--7--7--7--9--7---||
--5--5--5--5--5--5--5--5--|--5--5--5--5--5--5--5--5---||


  E  E  E  E  E  E  E  E     E  E  E  E  E  E  E  E   
--------------------------|--------------------------|
--------------------------|--------------------------|
--------------------------|--------------------------|
--7--7--9--7--7--7--9--7--|--7--7--9--7--7--7--9--7--|
--5--5--5--5--5--5--5--5--|--5--5--5--5--5--5--5--5--|
--------------------------|--------------------------|


  E  E  E  E  E  E  E  E     E  E  E  E  E  E  E  E   
--------------------------|--------------------------|
--------------------------|--------------------------|
--------------------------|--------------------------|
--------------------------|--------------------------|
--5--5--7--5--5--5--7--5--|--5--5--7--5--5--5--7--5--|
--3--3--3--3--3--3--3--3--|--3--3--3--3--3--3--3--3--|


  E  E  E  E  E  E  E  E     E  E  E  E  E  E  E  E   
--------------------------|--------------------------|
--------------------------|--------------------------|
--------------------------|--------------------------|
--------------------------|--------------------------|
--7--7--9--7--7--7--9--7--|--7--7--9--7--7--7--9--7--|
--5--5--5--5--5--5--5--5--|--5--5--5--5--5--5--5--5--|


  E  E  E  E  E  E  E  E     E  E  E  E  E  E  E  E   
--------------------------|--------------------------|
--------------------------|--------------------------|
--------------------------|--------------------------|
--7--7--9--7--7--7--9--7--|--------------------------|
--5--5--5--5--5--5--5--5--|-----7--7--7--7--7--7--7--|
--------------------------|-----5--5--5--5--5--5--5--|


  E  E  E  E  E  E  E  E     E  E  E  E  E  E  E  E   
--------------------------|--------------------------|
--------------------------|--------------------------|
--------------------------|--------------------------|
--7--7--9--7--7--7--9--7--|--7--7--9--7--7--7--9--7--|
--5--5--5--5--5--5--5--5--|--5--5--5--5--5--5--5--5--|
--------------------------|--------------------------|


  E  E  E  E  E  E  E  E     E  E  E  E  E  E  E  E   
--------------------------|--------------------------|
--------------------------|--------------------------|
--------------------------|--------------------------|
--------------------------|--------------------------|
--5--5--7--5--5--5--7--5--|--5--5--7--5--5--5--7--5--|
--3--3--3--3--3--3--3--3--|--3--3--3--3--3--3--3--3--|


  E  E  E  E  E  E  E  E     E  E  E  E  E  E  E  E   
--------------------------|--------------------------|
--------------------------|--------------------------|
--------------------------|--------------------------|
--------------------------|--------------------------|
--7--7--9--7--7--7--9--7--|--7--7--9--7--7--7--9--7--|
--5--5--5--5--5--5--5--5--|--5--5--5--5--5--5--5--5--|


  E  E  E  E  E  E  E  E     E  Q    Q    Q    E     E  E  E  E  E  E  E  E   
--------------------------|-----------------------|--------------------------|
--------------------------|-----------------------|--------------------------|
--------------------------|--7--------------------|--------------------------|
--7--7--9--7--7--7--9--7--|--7--------------------|--------------------------|
--5--5--5--5--5--5--5--5--|-----------------------|--2--2--4--2--2--2--4--2--|
--------------------------|-----2----3----4----5--|--0--0--0--0--0--0--0--0--|


  E  E  E  E  E  E  E  E     E  E  E  E  E  E  E  E     E  Q    Q    Q    E   
--------------------------|--------------------------|-----------------------|
--------------------------|--------------------------|-----------------------|
--------------------------|--------------------------|-----------------------|
--------------------------|--------------------------|-----------------------|
--2--2--4--2--2--2--4--2--|--7--7--9--7--7--7--9--7--|--7--------------------|
--0--0--0--0--0--0--0--0--|--5--5--5--5--5--5--5--5--|--5--6----7----8----9--|


   W                    Q    H.             
--------------------|---------------------||
--------------------|---------------------||
--------------------|---------------------||
--------------------|---------------------||
--12----------------|--12-----------------||
--10----------------|--10-----------------||







                                                                 
Lead Gtr.



     W                   W                   W                 
E||-------------------|-------------------|-------------------|
B||-------------------|-------------------|-------------------|
G||-------------------|-------------------|-------------------|
D||-------------------|-------------------|-------------------|
A||-------------------|-------------------|-------------------|
E||-------------------|-------------------|-------------------|


  W                   W                   W                   W                 
-------------------|-------------------|-------------------|-------------------|
-------------------|-------------------|-------------------|-------------------|
-------------------|-------------------|-------------------|-------------------|
-------------------|-------------------|-------------------|-------------------|
-------------------|-------------------|-------------------|-------------------|
-------------------|-------------------|-------------------|-------------------|


  W                   W                   W                   W                 
-------------------|-------------------|-------------------|-------------------|
-------------------|-------------------|-------------------|-------------------|
-------------------|-------------------|-------------------|-------------------|
-------------------|-------------------|-------------------|-------------------|
-------------------|-------------------|-------------------|-------------------|
-------------------|-------------------|-------------------|-------------------|


  W                     W                   W                 
-------------------||--------------------|-------------------|
-------------------||--------------------|-------------------|
-------------------||*-------------------|-------------------|
-------------------||*-------------------|-------------------|
-------------------||--------------------|-------------------|
-------------------||--------------------|-------------------|


  W                   W                   W                   W                 
-------------------|-------------------|-------------------|-------------------|
-------------------|-------------------|-------------------|-------------------|
-------------------|-------------------|-------------------|-------------------|
-------------------|-------------------|-------------------|-------------------|
-------------------|-------------------|-------------------|-------------------|
-------------------|-------------------|-------------------|-------------------|


  W                   W                   W                   W                 
-------------------|-------------------|-------------------|-------------------|
-------------------|-------------------|-------------------|-------------------|
-------------------|-------------------|-------------------|-------------------|
-------------------|-------------------|-------------------|-------------------|
-------------------|-------------------|-------------------|-------------------|
-------------------|-------------------|-------------------|-------------------|


  W                   W                   W                   W                 
-------------------|-------------------|-------------------|-------------------|
-------------------|-------------------|-------------------|-------------------|
-------------------|-------------------|-------------------|-------------------|
-------------------|-------------------|-------------------|-------------------|
-------------------|-------------------|-------------------|-------------------|
-------------------|-------------------|-------------------|-------------------|


  W                   W                   E  E  Q    E  E  Q     
-------------------|-------------------|------------------------|
-------------------|-------------------|------------------------|
-------------------|-------------------|--x--x--7----x--x--7----|
-------------------|-------------------|--x--x--7----x--x--7----|
-------------------|-------------------|--x--x--5----x--x--5----|
-------------------|-------------------|------------------------|


  E  E  Q    E  E  Q       E  E  Q    E  E  Q       E  E  Q    E  E  Q     
------------------------|------------------------|------------------------|
------------------------|------------------------|------------------------|
--x--x--7----x--x--7----|------------------------|------------------------|
--x--x--7----x--x--7----|--x--x--5----x--x--5----|--x--x--5----x--x--5----|
--x--x--5----x--x--5----|--x--x--5----x--x--5----|--x--x--5----x--x--5----|
------------------------|--x--x--3----x--x--3----|--x--x--3----x--x--3----|


  E  E  Q    E  E  Q       E  E  Q    E  E  Q       E  E  Q    E  E  Q     
------------------------|------------------------|------------------------|
------------------------|------------------------|------------------------|
--x--x--9----x--x--9----|--x--x--9----x--x--9----|------------------------|
--x--x--9----x--x--9----|--x--x--9----x--x--9----|--x--x--7----x--x--7----|
--x--x--7----x--x--7----|--x--x--7----x--x--7----|--x--x--7----x--x--7----|
------------------------|------------------------|--x--x--5----x--x--5----|


  E  E  E  E  E  E  E  E     E  E  Q    E  E  Q       E  E  Q    E  E  Q     
--------------------------|------------------------|------------------------|
--------------------------|------------------------|------------------------|
--------------------------|--x--x--7----x--x--7----|--x--x--7----x--x--7----|
--x--7--7--7--7--7--7--7--|--x--x--7----x--x--7----|--x--x--7----x--x--7----|
--x--7--7--7--7--7--7--7--|--x--x--5----x--x--5----|--x--x--5----x--x--5----|
--x--5--5--5--5--5--5--5--|------------------------|------------------------|


  E  E  Q    E  E  Q       E  E  Q    E  E  Q       E  E  Q    E  E  Q     
------------------------|------------------------|------------------------|
------------------------|------------------------|------------------------|
------------------------|------------------------|--x--x--9----x--x--9----|
--x--x--5----x--x--5----|--x--x--5----x--x--5----|--x--x--9----x--x--9----|
--x--x--5----x--x--5----|--x--x--5----x--x--5----|--x--x--7----x--x--7----|
--x--x--3----x--x--3----|--x--x--3----x--x--3----|------------------------|


  E  E  Q    E  E  Q       E  E  Q    E  E  Q       E  E  E  E  E  E  E  E     
------------------------|------------------------|---------------------------||
------------------------|------------------------|---------------------------||
--x--x--9----x--x--9----|------------------------|--------------------------*||
--x--x--9----x--x--9----|--x--x--7----x--x--7----|--x--7--7--7--7--7--7--7--*||
--x--x--7----x--x--7----|--x--x--7----x--x--7----|--x--7--7--7--7--7--7--7---||
------------------------|--x--x--5----x--x--5----|--x--5--5--5--5--5--5--5---||


  Q      E  E    E  Q    E     Q      E  E    E  E  S S E   
----------------------------|------------------------------|
--------10------------------|--------10--------------------|
--9b--------9br--L--7----7--|--9b--------9br--L--7--9-7----|
----------------------------|---------------------------9--|
----------------------------|------------------------------|
----------------------------|------------------------------|


  E  E  E  Q    E  E  E     E  E   E  Q    E  E  E   
-------------------------|--------------------------|
-------------------------|--------------------------|
--7--7-----7----7--9--7--|--9--9b--9--7----7--9--7--|
--------9----------------|--------------------------|
-------------------------|--------------------------|
-------------------------|--------------------------|


  E  E    E  Q    E  E  E     E  E    E  Q    E  E  E   
---------------------------|---------------------------|
---------------------------|---------------------------|
--9------------------------|--9------------------------|
-----9br--L--7----7--9--7--|-----9br--L--7----7--9--7--|
---------------------------|---------------------------|
---------------------------|---------------------------|


  E   E  E  E  Q    E  E        E   E   S  S  Q     E   E   E   
--------------------------|------------------------------------|
--------------------------|--------10--12-10-10----10--12--10--|
---------7-----7----9--7--|--9g11------------------------------|
--7S--9-----9-------------|------------------------------------|
--------------------------|------------------------------------|
--------------------------|------------------------------------|


   E   E   E   E   Q     E   E      E    E     E     E     S  S  E   S  S  E   
----------10------10----12--10--|--12b--12pb--12pb--12pb--12--L-10--12-10-----|
--11--12------12----------------|-----------------------------------------12--|
--------------------------------|---------------------------------------------|
--------------------------------|---------------------------------------------|
--------------------------------|---------------------------------------------|
--------------------------------|---------------------------------------------|


   E   E   E   Q     E   E   E      E    E   E   Q     E   E   E   
--10--10------10----10--12--10--|--12b--10--12--10----10--12--10--|
----------12--------------------|---------------------------------|
--------------------------------|---------------------------------|
--------------------------------|---------------------------------|
--------------------------------|---------------------------------|
--------------------------------|---------------------------------|


   E   E     E   Q     E   E   E      E   E     E   E   E   E   E   E   
--12------------------------------|--12----------------12--13--12--10--|
------12br---L--10----10--12--10--|------12br---L--10------------------|
----------------------------------|------------------------------------|
----------------------------------|------------------------------------|
----------------------------------|------------------------------------|
----------------------------------|------------------------------------|


   H        H           W                   E  E  Q    E  E  Q     
--10-----------------|-------------------|------------------------|
---------------------|-------------------|------------------------|
---------------------|-------------------|--x--x--9----x--x--9----|
---------------------|-------------------|--x--x--9----x--x--9----|
---------------------|-------------------|--x--x--7----x--x--7----|
---------------------|-------------------|------------------------|


  E  E  Q    E  E  Q       E  E  Q    E  E  Q       W                 
------------------------|------------------------|-------------------|
------------------------|------------------------|-------------------|
--x--x--9----x--x--9----|------------------------|-------------------|
--x--x--9----x--x--9----|--x--x--7----x--x--7----|-------------------|
--x--x--7----x--x--7----|--x--x--7----x--x--7----|-------------------|
------------------------|--x--x--5----x--x--5----|-------------------|


  W                   W                  
-------------------|-------------------||
-------------------|-------------------||
-------------------|-------------------||
-------------------|-------------------||
-------------------|-------------------||
-------------------|-------------------||




Duration Legend
---------------
W - whole
H - half
Q - quarter
E - 8th
S - 16th
T - 32nd
X - 64th
. - note dotted
|-n-|  - n-tuplets


Tablature Legend
----------------
L - tied note
x - dead note
g - grace note
(n) - ghost note
> - accentuded note
NH - natural harmonic
AH - artificial harmonic
TH - tapped harmonic
SH - semi harmonic
PH - pitch harmonic
h - hammer on
p - pull off
b - bend
br - bendRelease
pb - preBend
pbr - preBendRelease
brb - bendReleaseBend
\n/ - tremolo bar dip
\n - tremolo bar dive
-/n - tremolo bar Release up
/n\ - tremolo bar inverted dip
/n - tremolo bar return
-\n - tremolo bar Release down
S - shift slide
s - legato slide
/ -  slide into from below or out of upwards
\ -  slide into from above or out of downwards
~ - vibrato
W - wide vibrato
tr - trill
TP - tremolo picking
T - tapping
S - slap
P - pop
< - fade in
^ - brush up
v - brush down
Добавлено: 03.06.2013
Другие материалы по этой песне:

Страница создана 18.07.2012
http://primanota.ru/hurriganes/mary-jane-chords.htm
Привет, Гость.
Предлагаем пройти революционный курс по гитаре.
Подарок от PrimaNota.Ru, забирай!