PrimaNota.ru - самый крупный в мире бесплатный архив песенных текстов, аккордов, табулатур и нот


Hurriganes - Made In Sweden - таба, видео

Регистрация Запомнить меня
Войти через:  Facebook Google Twitter Vk Yandex Mail.ru

Hurriganes - Made In Sweden - таба, видео

Печатать
Просмотров: 63
-------------------------------------------------------------------------------
Hurriganes- Made in Sweden
Album: 10/80

Verse
e|---------------------------------------------------------------------------|
B|--11-----------------11-------------------------8-8------------------------|
G|-----10-9---------------10-9---------------8-10-----10p8----8--------------|
D|----------10-8-10-10---------10-8-10-10-10---------------10---10-----------|
A|---------------------------------------------------------------------------|
E|---------------------------------------------------------------------------|

e|-------------------------------8-------------------------------------------|
B|----------8-8--------------------------------------------------------------|
G|-----8-10-----10p8----8-------------------8-10-8-10b12r10b12---------------|
D|--10---------------10---10--10---10-10-10----------------------------------|
A|---------------------------------------------------------------------------|
E|---------------------------------------------------------------------------|

e|---------------------------------------------------------------------------|
B|---------------------------------------------------------------------------|
G|-----8-10-8----------------8-10-8-----------------8-----------------8------|
D|--10--------10-8-8-9-10-10--------10-8-8-9-10--10---10-10-8-10-8h10--------|
A|---------------------------------------------------------------------------|
E|---------------------------------------------------------------------------|

e|---------------------------------------------------------------------------|
B|---------------------------------------------------------------------------|
G|------------8~-----8-10-8-----------------8-10-8---------------------------|
D|-10-10-8-10-----10--------10-8-8-9-10--10--------10-8-8-9-10---------------|
A|---------------------------------------------------------------------------|
E|---------------------------------------------------------------------------|

Solo
e|---------------------------------------------------------------------------|
B|---11-------------------------------8-11-11------8-10b11-8----8-----8-8----|
G|------10-9-------------------7-9-10----------8h9-----------10---8h9--------|
D|------------12\10-10\8-10-10-----------------------------------------------|
A|---------------------------------------------------------------------------|
E|---------------------------------------------------------------------------|

e|---------------------------------------------------------------------------|
B|-8-10-8-10b11-10b11-10b11r10p8---------------------------------------------|
G|-------------------------------10-8h9--------------------------------------|
D|--------------------------------------10-8-8-10\---------------------------|
A|---------------------------------------------------------------------------|
E|---------------------------------------------------------------------------|

e|--------------------------------8----8-------------------------------------|
B|--------------------------------8----8-----8----8-10b11r10-8---------------|
G|------5-5-----7b9r7p5---5---5/9---10---8h9---10--------------10------------|
D|--5h7-----7-5---------7---7------------------------------------------------|
A|---------------------------------------------------------------------------|
E|---------------------------------------------------------------------------|

Verse
e|---------------------------------------------------------------------------|
B|--11-----------------11-------------------------8-8------------------------|
G|-----10-9---------------10-9---------------8-10-----10p8----8--------------|
D|----------10-8-10-10---------10-8-10-10-10---------------10---10-----------|
A|---------------------------------------------------------------------------|
E|---------------------------------------------------------------------------|

e|-------------------------------8-------------------------------------------|
B|----------8-8--------------------------------------------------------------|
G|-----8-10-----10p8----8-------------------8-10-8-10b12r10b12---------------|
D|--10---------------10---10--10---10-10-10----------------------------------|
A|---------------------------------------------------------------------------|
E|---------------------------------------------------------------------------|

e|---------------------------------------------------------------------------|
B|---------------------------------------------------------------------------|
G|-----8-10-8----------------8-10-8-----------------8-----------------8------|
D|--10--------10-8-8-9-10-10--------10-8-8-9-10--10---10-10-8-10-8h10--------|
A|---------------------------------------------------------------------------|
E|---------------------------------------------------------------------------|

e|---------------------------------------------------------------------------|
B|---------------------------------------------------------------------------|
G|------------8~-----8-10-8-----------------8-10-8---------------------------|
D|-10-10-8-10-----10--------10-8-8-9-10--10--------10-8-8-9-10---------------|
A|---------------------------------------------------------------------------|
E|---------------------------------------------------------------------------|

Добавлено: 28.08.2013
Другие материалы по этой песне:
  • Аккорды и текст

Страница создана 28.08.2013
http://primanota.ru/hurriganes/made-in-sweden-chords.htm
Привет, Гость.
Предлагаем пройти революционный курс по гитаре.
Подарок от PrimaNota.Ru, забирай!