PrimaNota.ru - самый крупный в мире бесплатный архив песенных текстов, аккордов, табулатур и нот


Hurriganes - Love Potion No 9 - таба, видео

Регистрация Запомнить меня
Войти через:  Facebook Google Twitter Vk Yandex Mail.ru

Hurriganes - Love Potion No 9 - таба, видео

Печатать
Просмотров: 93
Уроки эстрадного вокала в Санкт-Петербурге
-------------------------------------------------------------------------------
Hurriganes-Love potion no. 9
-------------------------------------------------------------------------------

Intro
e|---------------------------------------------------------------------------|
B|---------------------------------------------------------------------------|
G|----------5-----------5------------------------------5-5-5--5--5-5--7------|
D|---3---5--5---3---5---5------------------------------5-5-5--5--5-5--7------|
A|---3---5--3---3---5---3--3--3-3-3-3-3-3-3--3-3-5-5-5-3-3-3--3--3-3--5------|
E|---1---3------1---3------1--1-1-1-1-1-1-1--1-1-3-3-3-----------------------|

e|---------------------------------------------------------------------------|
B|---------------------------------------------------------------------------|
G|---------------------------------------------------------------------------|
D|---------------------------------------------------------------------------|
A|--5--5-5-5-3-5--5-5-5-3----------------------------------------------------|
E|--3--3-3-3-1-3--3-3-3-1----------------------------------------------------|

Verse
e|---------------------------------------------------------------------------|
B|---------------------------------------------------------------------------|
G|---------------------------------------------------------------------------|
D|------------------5-5-5-5-5-5-5-5-----------------5-5-5-5-5-5-5-5----------|
A|--5-5-5-5-5-5-5-5-3-3-3-3-3-3-3-3-5-5-5-5-5-5-5-5-3-3-3-3-3-3-3-3----------|
E|--3-3-3-3-3-3-3-3-----------------3-3-3-3-3-3-3-3--------------------------|

e|---------------------------------------------------------------------------|
B|---------------------------------------------------------------------------|
G|---------------------------------------------------------------------------|
D|------------------------------------------------7--------------------------|
A|---3-3-3-3-3-3-3-3-3-3-3-5-5-5-5-5-5-5-5-5-5-5--5-5-5-5-5-3-5-5-5-5-3------|
E|---1-1-1-1-1-1-1-1-1-1-1-3-3-3-3-3-3-3-3-3-3-3----3-3-3-3-1-3-3-3-3-1------|

Verse
e|---------------------------------------------------------------------------|
B|---------------------------------------------------------------------------|
G|---------------------------------------------------------------------------|
D|------------------5-5-5-5-5-5-5-5-----------------5-5-5-5-5-5-5-5----------|
A|--5-5-5-5-5-5-5-5-3-3-3-3-3-3-3-3-5-5-5-5-5-5-5-5-3-3-3-3-3-3-3-3----------|
E|--3-3-3-3-3-3-3-3-----------------3-3-3-3-3-3-3-3--------------------------|

e|---------------------------------------------------------------------------|
B|---------------------------------------------------------------------------|
G|---------------------------------------------------------------------------|
D|------------------------------------------------7--------------------------|
A|---3-3-3-3-3-3-3-3-3-3-3-5-5-5-5-5-5-5-5-5-5-5--5-5-5-5-5-3-5-5-5-5-5------|
E|---1-1-1-1-1-1-1-1-1-1-1-3-3-3-3-3-3-3-3-3-3-3----3-3-3-3-1-3-3-3-3-3------|

Bridge
e|---------------------------------------------------------------------------|
B|---------------------------------------------------------------------------|
G|---------------------------------------------------------------------------|
D|--5-5-5-5-5-5-5-5-5-5-5-5-5-5-5-5------------------------------------------|
A|--3-3-3-3-3-3-3-3-3-3-3-3-3-3-3-3-7-7-7-7-7-7-7-7-7-7-7-7-7-7-7-7----------|
E|----------------------------------5-5-5-5-5-5-5-5-5-5-5-5-5-5-5-5----------|

e|---------------------------------------------------------------------------|
B|---------------------------------------------------------------------------|
G|---------------------------------------------------------------------------|
D|--5-5-5-5-5-5-5-5-5-5-5-5-5-5-5-5--7--5-7----------------------------------|
A|--3-3-3-3-3-3-3-3-3-3-3-3-3-3-3-3--5--3-5----------------------------------|
E|---------------------------------------------------------------------------|

Verse
e|---------------------------------------------------------------------------|
B|---------------------------------------------------------------------------|
G|---------------------------------------------------------------------------|
D|------------------5-5-5-5-5-5-5-5-----------------5-5-5-5-5-5-5-5----------|
A|--5-5-5-5-5-5-5-5-3-3-3-3-3-3-3-3-5-5-5-5-5-5-5-5-3-3-3-3-3-3-3-3----------|
E|--3-3-3-3-3-3-3-3-----------------3-3-3-3-3-3-3-3--------------------------|

e|---------------------------------------------------------------------------|
B|---------------------------------------------------------------------------|
G|---------------------------------------------------------------------------|
D|------------------------------------------------7--------------------------|
A|---3-3-3-3-3-3-3-3-3-3-3-5-5-5-5-5-5-5-5-5-5-5--5-5-5-5-5-3-5-5-5-5-3------|
E|---1-1-1-1-1-1-1-1-1-1-1-3-3-3-3-3-3-3-3-3-3-3----3-3-3-3-1-3-3-3-3-1------|

Keyboard solo
e|---------------------------------------------------------------------------|
B|---------------------------------------------------------------------------|
G|---------------------------------------------------------------------------|
D|--5-5-5-5-5-5-5-5-5-5-5-5-5-5-5-5------------------------------------------|
A|--3-3-3-3-3-3-3-3-3-3-3-3-3-3-3-3-7-7-7-7-7-7-7-7-7-7-7-7-7-7-7-7----------|
E|----------------------------------5-5-5-5-5-5-5-5-5-5-5-5-5-5-5-5----------|

e|---------------------------------------------------------------------------|
B|---------------------------------------------------------------------------|
G|---------------------------------------------------------------------------|
D|--5-5-5-5-5-5-5-5-5-5-5-5-5-5-5-5--7--5-7----------------------------------|
A|--3-3-3-3-3-3-3-3-3-3-3-3-3-3-3-3--5--3-5----------------------------------|
E|---------------------------------------------------------------------------|

Verse
e|---------------------------------------------------------------------------|
B|---------------------------------------------------------------------------|
G|---------------------------------------------------------------------------|
D|------------------5-5-5-5-5-5-5-5-----------------5-5-5-5-5-5-5-5----------|
A|--5-5-5-5-5-5-5-5-3-3-3-3-3-3-3-3-5-5-5-5-5-5-5-5-3-3-3-3-3-3-3-3----------|
E|--3-3-3-3-3-3-3-3-----------------3-3-3-3-3-3-3-3--------------------------|

e|---------------------------------------------------------------------------|
B|---------------------------------------------------------------------------|
G|---------------------------------------------------------------------------|
D|------------------------------------------------7--------------------------|
A|---3-3-3-3-3-3-3-3-3-3-3-5-5-5-5-5-5-5-5-5-5-5--5-5-5-5-5-3-5-5-5-5-5------|
E|---1-1-1-1-1-1-1-1-1-1-1-3-3-3-3-3-3-3-3-3-3-3----3-3-3-3-1-3-3-3-3-3------|

Bridge
e|---------------------------------------------------------------------------|
B|---------------------------------------------------------------------------|
G|---------------------------------------------------------------------------|
D|--5-5-5-5-5-5-5-5-5-5-5-5-5-5-5-5------------------------------------------|
A|--3-3-3-3-3-3-3-3-3-3-3-3-3-3-3-3-7-7-7-7-7-7-7-7-7-7-7-7-7-7-7-7----------|
E|----------------------------------5-5-5-5-5-5-5-5-5-5-5-5-5-5-5-5----------|

e|---------------------------------------------------------------------------|
B|---------------------------------------------------------------------------|
G|---------------------------------------------------------------------------|
D|--5-5-5-5-5-5-5-5-5-5-5-5-5-5-5-5--7--5-7----------------------------------|
A|--3-3-3-3-3-3-3-3-3-3-3-3-3-3-3-3--5--3-5----------------------------------|
E|---------------------------------------------------------------------------|

Verse
e|---------------------------------------------------------------------------|
B|---------------------------------------------------------------------------|
G|---------------------------------------------------------------------------|
D|------------------5-5-5-5-5-5-5-5-----------------5-5-5-5-5-5-5-5----------|
A|--5-5-5-5-5-5-5-5-3-3-3-3-3-3-3-3-5-5-5-5-5-5-5-5-3-3-3-3-3-3-3-3----------|
E|--3-3-3-3-3-3-3-3-----------------3-3-3-3-3-3-3-3--------------------------|

e|---------------------------------------------------------------------------|
B|---------------------------------------------------------------------------|
G|---------------------------------------------------------------------------|
D|------------------------------------------------7---------3-5-5-5-5-5------|
A|---3-3-3-3-3-3-3-3-3-3-3-5-5-5-5-5-5-5-5-5-5-5--5-5-5-5-5-1-3-3-3-3-3------|
E|---1-1-1-1-1-1-1-1-1-1-1-3-3-3-3-3-3-3-3-3-3-3----3-3-3-3------------------|


e|---------------------------------------------------------------------------|
B|---------------------------------------------------------------------------|
G|---------------------------------------------------------------------------|
D|----------3-5-5-5-5----------3-5-5-5-5----------3-5-5-5-5--------------5---|
A|--5-5-5-5-1-3-3-3-3--5-5-5-5-1-3-3-3-3--5-5-5-5-1-3-3-3-3--------------5---|
E|--3-3-3-3------------3-3-3-3------------3-3-3-3---------------3-5-3-1--3---|

Добавлено: 11.07.2013
Другие материалы по этой песне:
  • Аккорды и текст

Страница создана 11.07.2013
http://primanota.ru/hurriganes/love-potion-no-9-chords.htm
Привет, Гость.
Предлагаем пройти революционный курс по гитаре.
Подарок от PrimaNota.Ru, забирай!