PrimaNota.ru - самый крупный в мире бесплатный архив песенных текстов, аккордов, табулатур и нот


Hurriganes - Looking For The Tsugu - таба, видео

Регистрация Запомнить меня
Войти через:  Facebook Google Twitter Vk Yandex Mail.ru

Hurriganes - Looking For The Tsugu - таба, видео

Печатать
Просмотров: 68
Hurriganes- Looking For the Tsugu                               

Tabbed by larmo
                                                                     
Gtr.1



     S S S S S S S S S S S S S S S S    Q    H.            
E||----------------------------------|--------------------|
B||----------------------------------|--------------------|
G||----------------------------------|--------------------|
D||--9-9-9-9-9-9-9-9-7-7-7-7-7-7-7-7-|--9-----------------|
A||--9-9-9-9-9-9-9-9-7-7-7-7-7-7-7-7-|--9-----------------|
E||--7-7-7-7-7-7-7-7-5-5-5-5-5-5-5-5-|--7-----------------|


  E  E   E   E   E   S  S  S S S S    E  E   E   E   E   S  S  S S S S  
-----------------------------------|-----------------------------------|
-----------------------------------|-----------------------------------|
-----------------------------------|-----------------------------------|
-----------------------------------|-----------------------------------|
--9--9--11--11--12--12--x-11-9-9-9-|--9--9--11--11--12--12--x-11-9-9-9-|
--7--7---7---7---7---7--x--7-7-7-7-|--7--7---7---7---7---7--x--7-7-7-7-|


  E  E   E   E   E   S  S  S S S S    E  E   E   E   E   S  S  S S S S  
-----------------------------------|-----------------------------------|
-----------------------------------|-----------------------------------|
-----------------------------------|-----------------------------------|
-----------------------------------|-----------------------------------|
--9--9--11--11--12--12--x-11-9-9-9-|--9--9--11--11--12--12--x-11-9-9-9-|
--7--7---7---7---7---7--x--7-7-7-7-|--7--7---7---7---7---7--x--7-7-7-7-|


    E  E   E   E   E   S  S  S S S S    E  E   E   E   E   S  S  S S S S  
|------------------------------------|-----------------------------------|
|------------------------------------|-----------------------------------|
|*-----------------------------------|-----------------------------------|
|*-----------------------------------|-----------------------------------|
|---9--9--11--11--12--12--x-11-9-9-9-|--9--9--11--11--12--12--x-11-9-9-9-|
|---7--7---7---7---7---7--x--7-7-7-7-|--7--7---7---7---7---7--x--7-7-7-7-|


  E  E   E   E   E   S  S  S S S S    E  E   E   E   E   S  S  S S S S  
-----------------------------------|-----------------------------------|
-----------------------------------|-----------------------------------|
-----------------------------------|-----------------------------------|
-----------------------------------|-----------------------------------|
--9--9--11--11--12--12--x-11-9-9-9-|--9--9--11--11--12--12--x-11-9-9-9-|
--7--7---7---7---7---7--x--7-7-7-7-|--7--7---7---7---7---7--x--7-7-7-7-|


  E  E   E   E   E   S  S  S S S S    E  E   E   E   E   S  S  S S S S  
-----------------------------------|-----------------------------------|
-----------------------------------|-----------------------------------|
-----------------------------------|-----------------------------------|
--9--9--11--11--12--12--x-11-9-9-9-|--9--9--11--11--12--12--x-11-9-9-9-|
--7--7---7---7---7---7--x--7-7-7-7-|--7--7---7---7---7---7--x--7-7-7-7-|
-----------------------------------|-----------------------------------|


  E  E   E   E   E   S  S  S S S S    E  E   E   E   E   S  S  S S S S  
-----------------------------------|-----------------------------------|
-----------------------------------|-----------------------------------|
-----------------------------------|-----------------------------------|
-----------------------------------|-----------------------------------|
--9--9--11--11--12--12--x-11-9-9-9-|--9--9--11--11--12--12--x-11-9-9-9-|
--7--7---7---7---7---7--x--7-7-7-7-|--7--7---7---7---7---7--x--7-7-7-7-|


   E   E   E   E   E   S  S  S  S  S  S    E  E   E   E   E   S  S  S S S S  
----------------------------------------|-----------------------------------|
----------------------------------------|-----------------------------------|
----------------------------------------|-----------------------------------|
--11--11--13--13--14--14--x-13-11-11-11-|--9--9--11--11--12--12--x-11-9-9-9-|
---9---9---9---9---9---9--x--9--9--9--9-|--7--7---7---7---7---7--x--7-7-7-7-|
----------------------------------------|-----------------------------------|


  E  E   E   E   E   S  S  S S S S    E  E   E   E   E   S  S  S S S S    
-----------------------------------|------------------------------------||
-----------------------------------|------------------------------------||
-----------------------------------|-----------------------------------*||
-----------------------------------|-----------------------------------*||
--9--9--11--11--12--12--x-11-9-9-9-|--9--9--11--11--12--12--x-11-9-9-9--||
--7--7---7---7---7---7--x--7-7-7-7-|--7--7---7---7---7---7--x--7-7-7-7--||


   E  E   E   E   E   S  S  S S S S    E  E   E   E   E   S  S  S S S S    
------------------------------------|------------------------------------||
------------------------------------|------------------------------------||
*-----------------------------------|-----------------------------------*||
*-----------------------------------|-----------------------------------*||
---9--9--11--11--12--12--x-11-9-9-9-|--9--9--11--11--12--12--x-11-9-9-9--||
---7--7---7---7---7---7--x--7-7-7-7-|--7--7---7---7---7---7--x--7-7-7-7--||


  E  E   E   E   E   S  S  S S S S    E  E   E   E   E   S  S  S S S S  
-----------------------------------|-----------------------------------|
-----------------------------------|-----------------------------------|
-----------------------------------|-----------------------------------|
--9--9--11--11--12--12--x-11-9-9-9-|--9--9--11--11--12--12--x-11-9-9-9-|
--7--7---7---7---7---7--x--7-7-7-7-|--7--7---7---7---7---7--x--7-7-7-7-|
-----------------------------------|-----------------------------------|


  E  E   E   E   E   S  S  S S S S    E  E   E   E   E   S  S  S S S S  
-----------------------------------|-----------------------------------|
-----------------------------------|-----------------------------------|
-----------------------------------|-----------------------------------|
-----------------------------------|-----------------------------------|
--9--9--11--11--12--12--x-11-9-9-9-|--9--9--11--11--12--12--x-11-9-9-9-|
--7--7---7---7---7---7--x--7-7-7-7-|--7--7---7---7---7---7--x--7-7-7-7-|


   E   E   E   E   E   S  S  S  S  S  S    E  E   E   E   E   S  S  S S S S  
----------------------------------------|-----------------------------------|
----------------------------------------|-----------------------------------|
----------------------------------------|-----------------------------------|
--11--11--13--13--14--14--x-13-11-11-11-|--9--9--11--11--12--12--x-11-9-9-9-|
---9---9---9---9---9---9--x--9--9--9--9-|--7--7---7---7---7---7--x--7-7-7-7-|
----------------------------------------|-----------------------------------|


  E  E   E   E   E   S  S  S S S S    E  E   E   E   E   S  S  S S S S  
-----------------------------------|-----------------------------------|
-----------------------------------|-----------------------------------|
-----------------------------------|-----------------------------------|
-----------------------------------|-----------------------------------|
--9--9--11--11--12--12--x-11-9-9-9-|--9--9--11--11--12--12--x-11-9-9-9-|
--7--7---7---7---7---7--x--7-7-7-7-|--7--7---7---7---7---7--x--7-7-7-7-|


  E  E   E   E   E   S  S  S S S S    E.  S E  E.  S E  E  S S  
-----------------------------------|---------------------------|
-----------------------------------|---------------------------|
-----------------------------------|---------------------------|
-----------------------------------|--9---9-9--9---9-9--9--9-9-|
--9--9--11--11--12--12--x-11-9-9-9-|--9---9-9--9---9-9--9--9-9-|
--7--7---7---7---7---7--x--7-7-7-7-|--7---7-7--7---7-7--7--7-7-|


  E  E   E   E   E   S  S  S S S S    E.  S E  E.  S E  E  S S  
-----------------------------------|---------------------------|
-----------------------------------|---------------------------|
-----------------------------------|---------------------------|
-----------------------------------|--9---9-9--9---9-9--9--9-9-|
--9--9--11--11--12--12--x-11-9-9-9-|--9---9-9--9---9-9--9--9-9-|
--7--7---7---7---7---7--x--7-7-7-7-|--7---7-7--7---7-7--7--7-7-|


  E  E   E   E   E   S  S  S S S S    E.  S E  E.  S E  E  S S  
-----------------------------------|---------------------------|
-----------------------------------|---------------------------|
-----------------------------------|--9---9-9--9---9-9--9--9-9-|
--9--9--11--11--12--12--x-11-9-9-9-|--9---9-9--9---9-9--9--9-9-|
--7--7---7---7---7---7--x--7-7-7-7-|--7---7-7--7---7-7--7--7-7-|
-----------------------------------|---------------------------|


  E  E   E   E   E   S  S  S S S S    E.  S E  E.  S E  E  S S  
-----------------------------------|---------------------------|
-----------------------------------|---------------------------|
-----------------------------------|---------------------------|
-----------------------------------|--9---9-9--9---9-9--9--9-9-|
--9--9--11--11--12--12--x-11-9-9-9-|--9---9-9--9---9-9--9--9-9-|
--7--7---7---7---7---7--x--7-7-7-7-|--7---7-7--7---7-7--7--7-7-|


   E   E   E   E   E   S  S  S  S  S  S    Q    H.            
----------------------------------------|--------------------|
----------------------------------------|--------------------|
----------------------------------------|--------------------|
--11--11--13--13--14--14--x-13-11-11-11-|--9-----------------|
---9---9---9---9---9---9--x--9--9--9--9-|--7-----------------|
----------------------------------------|--------------------|


  E.  S E  E.  S E  S S S S    Q    Q    H           H.           Q      
----------------------------|---------------------|--------------------||
----------------------------|---------------------|--------------------||
----------------------------|---------------------|--------------------||
--9---9-9--9---9-9--9-9-9-9-|--9---------9--------|--L------------9----||
--9---9-9--9---9-9--9-9-9-9-|--9---------9--------|--L------------9----||
--7---7-7--7---7-7--7-7-7-7-|--7---------7--------|--L------------7----||




Gtr.2                                                   




     W                   W                   W                 
E||-------------------|-------------------|-------------------|
B||-------------------|-------------------|-------------------|
G||-------------------|-------------------|-------------------|
D||-------------------|-------------------|-------------------|
A||-------------------|-------------------|-------------------|
E||-------------------|-------------------|-------------------|


  W                   W                   W                 
-------------------|-------------------|-------------------|
-------------------|-------------------|-------------------|
-------------------|-------------------|-------------------|
-------------------|-------------------|-------------------|
-------------------|-------------------|-------------------|
-------------------|-------------------|-------------------|


    W                   W                   W                 
|--------------------|-------------------|-------------------|
|--------------------|-------------------|-------------------|
|*-------------------|-------------------|-------------------|
|*-------------------|-------------------|-------------------|
|--------------------|-------------------|-------------------|
|--------------------|-------------------|-------------------|


  W                   W                   W                   W                 
-------------------|-------------------|-------------------|-------------------|
-------------------|-------------------|-------------------|-------------------|
-------------------|-------------------|-------------------|-------------------|
-------------------|-------------------|-------------------|-------------------|
-------------------|-------------------|-------------------|-------------------|
-------------------|-------------------|-------------------|-------------------|


  W                   W                   W                   W                 
-------------------|-------------------|-------------------|-------------------|
-------------------|-------------------|-------------------|-------------------|
-------------------|-------------------|-------------------|-------------------|
-------------------|-------------------|-------------------|-------------------|
-------------------|-------------------|-------------------|-------------------|
-------------------|-------------------|-------------------|-------------------|


  W                      S S S S S S S S S S S S S S S S  
--------------------||-----------------------------------|
--------------------||-----------------------------------|
-------------------*||*--8-8-8-8-8-8-8-8-6-6-6-6-6-6-6-6-|
-------------------*||*--9-9-9-9-9-9-9-9-7-7-7-7-7-7-7-7-|
--------------------||---9-9-9-9-9-9-9-9-7-7-7-7-7-7-7-7-|
--------------------||---7-7-7-7-7-7-7-7-5-5-5-5-5-5-5-5-|


  E.  S E  E.  S E  Q          S  S  S  S  S  S  S  S  S  S  S  S  S  S  S  S  
--------------------------||--------------------------------------------------|
--------------------------||--------------------------------------------------|
--8---8-8--8---8-8--8----*||--13-13-13-13-13-13-13-13-11-11-11-11-11-11-11-11-|
--9---9-9--9---9-9--9----*||--14-14-14-14-14-14-14-14-12-12-12-12-12-12-12-12-|
--9---9-9--9---9-9--9-----||--14-14-14-14-14-14-14-14-12-12-12-12-12-12-12-12-|
--7---7-7--7---7-7--7-----||--12-12-12-12-12-12-12-12-10-10-10-10-10-10-10-10-|


   E.   S  E   E.   S  E   Q       S S S S S S S S S S S S S S S S  
--------------------------------|----------------------------------|
--------------------------------|----------------------------------|
--13---13-13--13---13-13--13----|--8-8-8-8-8-8-8-8-6-6-6-6-6-6-6-6-|
--14---14-14--14---14-14--14----|--9-9-9-9-9-9-9-9-7-7-7-7-7-7-7-7-|
--14---14-14--14---14-14--14----|--9-9-9-9-9-9-9-9-7-7-7-7-7-7-7-7-|
--12---12-12--12---12-12--12----|--7-7-7-7-7-7-7-7-5-5-5-5-5-5-5-5-|


  E.  S E  E.  S E  Q        S  S  S  S  S  S  S  S  S  S  S  S  S  S  S  S  
-------------------------|--------------------------------------------------|
-------------------------|--------------------------------------------------|
--8---8-8--8---8-8--8----|--15-15-15-15-15-15-15-15-13-13-13-13-13-13-13-13-|
--9---9-9--9---9-9--9----|--16-16-16-16-16-16-16-16-14-14-14-14-14-14-14-14-|
--9---9-9--9---9-9--9----|--16-16-16-16-16-16-16-16-14-14-14-14-14-14-14-14-|
--7---7-7--7---7-7--7----|--14-14-14-14-14-14-14-14-12-12-12-12-12-12-12-12-|


   S  S  S  S  S  S  S  S  S  S  S  S  S  S  S  S  
--------------------------------------------------|
--------------------------------------------------|
--13-13-13-13-13-13-13-13-11-11-11-11-11-11-11-11-|
--14-14-14-14-14-14-14-14-12-12-12-12-12-12-12-12-|
--14-14-14-14-14-14-14-14-12-12-12-12-12-12-12-12-|
--12-12-12-12-12-12-12-12-10-10-10-10-10-10-10-10-|


  E   S E   S E   S E   S E   S S    E   S E   S E   S E   S E   S S  
------7-----7-----7-----7-----7-7-|------7-----7-----7-----7-----7-7-|
------7-----7-----7-----7-----7-7-|------7-----7-----7-----7-----7-7-|
--9b----9b----9b----9b----9b------|--9b----9b----9b----9b----9b------|
----------------------------------|----------------------------------|
----------------------------------|----------------------------------|
----------------------------------|----------------------------------|


  W                   W                   W                   W                 
-------------------|-------------------|-------------------|-------------------|
-------------------|-------------------|-------------------|-------------------|
-------------------|-------------------|-------------------|-------------------|
-------------------|-------------------|-------------------|-------------------|
-------------------|-------------------|-------------------|-------------------|
-------------------|-------------------|-------------------|-------------------|


  W                   W                   W                   W                 
-------------------|-------------------|-------------------|-------------------|
-------------------|-------------------|-------------------|-------------------|
-------------------|-------------------|-------------------|-------------------|
-------------------|-------------------|-------------------|-------------------|
-------------------|-------------------|-------------------|-------------------|
-------------------|-------------------|-------------------|-------------------|


  W                   W                   W                   W                 
-------------------|-------------------|-------------------|-------------------|
-------------------|-------------------|-------------------|-------------------|
-------------------|-------------------|-------------------|-------------------|
-------------------|-------------------|-------------------|-------------------|
-------------------|-------------------|-------------------|-------------------|
-------------------|-------------------|-------------------|-------------------|


  W                  
-------------------||
-------------------||
-------------------||
-------------------||
-------------------||
-------------------||




Duration Legend
---------------
W - whole
H - half
Q - quarter
E - 8th
S - 16th
T - 32nd
X - 64th
. - note dotted
|-n-|  - n-tuplets


Tablature Legend
----------------
L - tied note
x - dead note
g - grace note
(n) - ghost note
> - accentuded note
NH - natural harmonic
AH - artificial harmonic
TH - tapped harmonic
SH - semi harmonic
PH - pitch harmonic
h - hammer on
p - pull off
b - bend
br - bendRelease
pb - preBend
pbr - preBendRelease
brb - bendReleaseBend
\n/ - tremolo bar dip
\n - tremolo bar dive
-/n - tremolo bar Release up
/n\ - tremolo bar inverted dip
/n - tremolo bar return
-\n - tremolo bar Release down
S - shift slide
s - legato slide
/ -  slide into from below or out of upwards
\ -  slide into from above or out of downwards
~ - vibrato
W - wide vibrato
tr - trill
TP - tremolo picking
T - tapping
S - slap
P - pop
< - fade in
^ - brush up
v - brush down
Добавлено: 21.10.2013
Другие материалы по этой песне:

Страница создана 03.10.2013
http://primanota.ru/hurriganes/looking-for-the-tsugu-chords.htm
Привет, Гость.
Предлагаем пройти революционный курс по гитаре.
Подарок от PrimaNota.Ru, забирай!