PrimaNota.ru - самый крупный в мире бесплатный архив песенных текстов, аккордов, табулатур и нот


Hurriganes - Lipstick-man - таба, видео

Регистрация Запомнить меня
Войти через:  Facebook Google Twitter Vk Yandex Mail.ru

Hurriganes - Lipstick-man - таба, видео

Печатать
Просмотров: 55
-------------------------------------------------------------------------------
Hurriganes- Lipstick-man
Album: Jailbird (1979)
-------------------------------------------------------------------------------

Intro
e|---------------------------------------------------------------------------|
B|---------------------------------------------------------------------------|
G|---------------------------------------------------------------------------|
D|---------------------------------------------------------------------------|
A|------0-0-------0-0------0-----0-0-0-----0-0-----0-0-----0-----0-0-0-------|
E|--3b4-------3b4------3b4---3b4-------3b4-----3b4-----3b4---3b4-------------|

Verse
e|----------2--2---------2--2----------2--2----------------------------------|
B|---2--2---3--3--2--2---3--3---2--2---3--3--2--2---3--3---------------------|
G|---2--2---2--2--2--2---2--2---2--2---2--2--2--2---2--2---------------------|
D|---2--2---0--0--2--2---0--0---2--2---0--0--2--2---0--0---------------------|
A|---0--0---------0--0----------0--0---------0--0----------------------------|
E|---------------------------------------------------------------------------|

Chorus
e|---0---0---2---2---0---0---2---2---0---0----2---2--------------------------|
B|---0---0---3---3---0---0---3---3---0---0----3---3--------------------------|
G|---1---1---2---2---1---1---2---2---1---1----2---2--------------------------|
D|---2---2---0---0---2---2---0---0---2---2----0---0--------------------------|
A|---2---2-----------2---2-----------2---2-----------------------------------|
E|---0---0-----------0---0-----------0---0-----------------------------------|

e|---------------------------------------------------------------------------|
B|---------------------------------------------------------------------------|
G|---------------------------------------------------------------------------|
D|---------------------------------------------------------------------------|
A|------0-0-------0-0------0-----0-0-0-----0-0-----0-0-----0-----0-0-0-------|
E|--3b4-------3b4------3b4---3b4-------3b4-----3b4-----3b4---3b4-------------|

Verse
e|----------2--2---------2--2----------2--2----------------------------------|
B|---2--2---3--3--2--2---3--3---2--2---3--3--2--2---3--3---------------------|
G|---2--2---2--2--2--2---2--2---2--2---2--2--2--2---2--2---------------------|
D|---2--2---0--0--2--2---0--0---2--2---0--0--2--2---0--0---------------------|
A|---0--0---------0--0----------0--0---------0--0----------------------------|
E|---------------------------------------------------------------------------|

Chorus
e|---0---0---2---2---0---0---2---2---0---0----2---2--------------------------|
B|---0---0---3---3---0---0---3---3---0---0----3---3--------------------------|
G|---1---1---2---2---1---1---2---2---1---1----2---2--------------------------|
D|---2---2---0---0---2---2---0---0---2---2----0---0--------------------------|
A|---2---2-----------2---2-----------2---2-----------------------------------|
E|---0---0-----------0---0-----------0---0-----------------------------------|

e|---------------------------------------------------------------------------|
B|---------------------------------------------------------------------------|
G|---------------------------------------------------------------------------|
D|---------------------------------------------------------------------------|
A|------0-0-------0-0------0-----0-0-0-----0-0-----0-0-----0-----0-0-0-------|
E|--3b4-------3b4------3b4---3b4-------3b4-----3b4-----3b4---3b4-------------|

Bridge
e|---2--2---2--2---2--2------------------------------------------------------|
B|---3--3---3--3---3--3---2--2---2--2----------------------------------------|
G|---2--2---2--2---2--2---2--2---2--2----------------------------------------|2x
D|---0--0---0--0---0--0---2--2---2--2----------------------------------------|
A|------------------------0--0---0--0----------------------------------------|
E|---------------------------------------------------------------------------|

e|---------------------------------------------------------------------------|
B|---------------------------------------------------------------------------|
G|---------------------------------------------------------------------------|
D|---9--9-9---9--9-9---9--9--9--9-9-9---9--9-9---9--9-9--9--9--9--9-9-9------|
A|--/7--7-7--/7--7-7--/7--7-/7--7-7-7--/7--7-7--/7--7-7-/7--7-/7--7-7-7------|
E|---------------------------------------------------------------------------|

Solo
e|----------------------------2------3----------2-----5-3-/5-5-3-------------|
B|-------------------------------3b5^^^r3---1-----3/5------------3b5r3-1-3-1-|
G|-------------2-4b6r4-2---2--------------2---2------------------------------|
D|---------2-4-----------4---------------------------------------------------|
A|---0--3-4------------------------------------------------------------------|
E|---------------------------------------------------------------------------|

e|---------------------------------------------------------------------------|
B|---------------------------------------------------------------------------|
G|--2-----2-----4b6r4-2---2--------------------------------------------------|
D|----2-4---4-2---------4---4\-----------------------------------------------|
A|---------------------------------------------------------------------------|
E|---------------------------------------------------------------------------|

Chorus
e|---0---0---2---2---0---0---2---2---0---0----2---2--------------------------|
B|---0---0---3---3---0---0---3---3---0---0----3---3--------------------------|
G|---1---1---2---2---1---1---2---2---1---1----2---2--------------------------|
D|---2---2---0---0---2---2---0---0---2---2----0---0--------------------------|
A|---2---2-----------2---2-----------2---2-----------------------------------|
E|---0---0-----------0---0-----------0---0-----------------------------------|

e|---------------------------------------------------------------------------|
B|---------------------------------------------------------------------------|
G|---------------------------------------------------------------------------|
D|---------------------------------------------------------------------------|
A|------0-0-------0-0------0-----0-0-0-----0-0-----0-0-----0-----0-0-0-------|
E|--3b4-------3b4------3b4---3b4-------3b4-----3b4-----3b4---3b4-------------|

Verse
e|----------2--2---------2--2----------2--2----------------------------------|
B|---2--2---3--3--2--2---3--3---2--2---3--3--2--2---3--3---------------------|
G|---2--2---2--2--2--2---2--2---2--2---2--2--2--2---2--2---------------------|
D|---2--2---0--0--2--2---0--0---2--2---0--0--2--2---0--0---------------------|
A|---0--0---------0--0----------0--0---------0--0----------------------------|
E|---------------------------------------------------------------------------|

Chorus
e|---0---0---2---2---0---0---2---2---0---0----2---2--------------------------|
B|---0---0---3---3---0---0---3---3---0---0----3---3--------------------------|
G|---1---1---2---2---1---1---2---2---1---1----2---2--------------------------|
D|---2---2---0---0---2---2---0---0---2---2----0---0--------------------------|
A|---2---2-----------2---2-----------2---2-----------------------------------|
E|---0---0-----------0---0-----------0---0-----------------------------------|

e|---------------------------------------------------------------------------|
B|---------------------------------------------------------------------------|
G|---------------------------------------------------------------------------|
D|---------------------------------------------------------------------------|
A|------0-0-------0-0------0-----0-0-0-----0-0-----0-0-----0-----0-0-0-------|
E|--3b4-------3b4------3b4---3b4-------3b4-----3b4-----3b4---3b4-------------|

e|---------------------------------------------------------------------------|
B|---------------------------------------------------------------------------|
G|---------------------------------------------------------------2-----------|
D|---------------------------------------------------------------2-----------|
A|------0-0-------0-0------0-----0-0-0-----0-0-----0-0-----0-----0-----------|
E|--3b4-------3b4------3b4---3b4-------3b4-----3b4-----3b4----3--------------|
Добавлено: 03.10.2013
Другие материалы по этой песне:
  • Аккорды и текст

Страница создана 03.10.2013
http://primanota.ru/hurriganes/lipstick-man-chords.htm
Привет, Гость.
Предлагаем пройти революционный курс по гитаре.
Подарок от PrimaNota.Ru, забирай!