PrimaNota.ru - самый крупный в мире бесплатный архив песенных текстов, аккордов, табулатур и нот


Hurriganes - Lets Drink Today - таба, видео

Регистрация Запомнить меня
Войти через:  Facebook Google Twitter Vk Yandex Mail.ru

Hurriganes - Lets Drink Today - таба, видео

Печатать
Просмотров: 62
-------------------------------------------------------------------------------
Hurriganes- Let's Drink Today
Album: Jailbird (1979)
-------------------------------------------------------------------------------

Intro			 hold bend
e|---------------------------------------------------------------------------|
B|-/-3-3-3-3-3-----3-3-3-----------------------------------------------------|
G|-/-4-4-4-4-4-2b4-4-4-4-4r2-0-----------------------------------------------|
D|-----------------------------2-0----------2--------2--------2--------------|
A|----------------------------------2-4-5-4-2--2-5-4-2--2-5-4-2--2-5-4-------|
E|----------------------------------0-0-0-0-0--0-0-0-0--0-0-0-0--0-0-0-------|

Verse
e|---------------------------|
B|---------------------------|
G|---------------------------| 8x
D|---2-----------------------|
A|---2-2-5-4-----------------|
E|---0-0-0-0-----------------|

Chorus
e|---------------------------------------------------------------------------|
B|----------5-------------------------------------3--------------------------|
G|------4b6---r4-2----------------------------2b4---2p1----------------------|2x
D|--2-2-4-2-2-2-4-2-2-2-4-2-2-2-4-2---------------------2--------------------|
A|--0-0-0-0-0-0-0-0-0-0-0-0-0-0-0-0--2-2-4-2-2-2-4-2-2-2-4-2-2-2-4-2---------|
E|-----------------------------------0-0-0-0-0-0-0-0-0-0-0-0-0-0-0-0---------|

Verse
e|---------------------------|
B|---------------------------|
G|---------------------------| 8x
D|---2-----------------------|
A|---2-2-5-4-----------------|
E|---0-0-0-0-----------------|

Chorus
e|---------------------------------------------------------------------------|
B|----------5-------------------------------------3--------------------------|
G|------4b6---r4-2----------------------------2b4---2p1----------------------|
D|--2-2-4-2-2-2-4-2-2-2-4-2-2-2-4-2---------------------2--------------------|
A|--0-0-0-0-0-0-0-0-0-0-0-0-0-0-0-0--2-2-4-2-2-2-4-2-2-2-4-2-2-2-4-2---------|
E|-----------------------------------0-0-0-0-0-0-0-0-0-0-0-0-0-0-0-0---------|

e|--------------------------------------7--------7---------------------------|
B|----------5-----------------------5/7----10b12---10\-----------------------|
G|------4b6---r4-2-----------------------------------------------------------|
D|--2-2-4-2-2-2-4-2-2-2-4-2-2-2-4-2--4-4-4-4-4-4-4-4-4-4-4-4-4-4-4-4---------|
A|--0-0-0-0-0-0-0-0-0-0-0-0-0-0-0-0--2-2-2-2-2-2-2-2-2-2-2-2-2-2-2-2---------|
E|---------------------------------------------------------------------------|

Solo
   A5							E5
e|---------------------------------------------------------------------------|
B|----------------------------------------12b14-10-12-8h9--------------------|
G|------9----9-11-9-11b13r11-9----9-9---------------------9p7---7-6-7--------|
D|--/11---11-------------------11-----11----------------------9--------------|
A|---------------------------------------------------------------------------|
E|---------------------------------------------------------------------------|

		 A5							B5
e|-----------------12--------------------------------------------------------|
B|-----------------12------------------------------------12----12-12---12----|
G|---------9-11b13-hold-r11-9-11b13r11-9----9-9-------------14------14-------|
D|----9/11-------------------------------11-----11-12-13---------------------|
A|---------------------------------------------------------------------------|
E|---------------------------------------------------------------------------|

e|-----------------------------|
B|-----------------------------|
G|-----------------------------|
D|---2-----2-2-----------------|
A|-----2h4-----4p2-------------|
E|-----------------4-----------|

Verse
e|--------------------------|
B|--------------------------|
G|--------------------------| 8x
D|---2----------------------|
A|---2-2-5-4----------------|
E|---0-0-0-0----------------|

Chorus
e|---------------------------------------------------------------------------|
B|----------5-------------------------------------3--------------------------|
G|------4b6---r4-2----------------------------2b4---2p1----------------------|4x
D|--2-2-4-2-2-2-4-2-2-2-4-2-2-2-4-2---------------------2--------------------|
A|--0-0-0-0-0-0-0-0-0-0-0-0-0-0-0-0--2-2-4-2-2-2-4-2-2-2-4-2-2-2-4-2---------|
E|-----------------------------------0-0-0-0-0-0-0-0-0-0-0-0-0-0-0-0---------|

e|------------|
B|------------|
G|------------|
D|---2--------|
A|---2--------|
E|---0--------|

Добавлено: 23.10.2013
Другие материалы по этой песне:
  • Аккорды и текст

Страница создана 23.10.2013
http://primanota.ru/hurriganes/lets-drink-today-chords.htm
Привет, Гость.
Предлагаем пройти революционный курс по гитаре.
Подарок от PrimaNota.Ru, забирай!