PrimaNota.ru - самый крупный в мире бесплатный архив песенных текстов, аккордов, табулатур и нот


Hurriganes - Keep On Movin - таба, видео

Регистрация Запомнить меня
Войти через:  Facebook Google Twitter Vk Yandex Mail.ru

Hurriganes - Keep On Movin - таба, видео

Печатать
Просмотров: 68
Hurriganes - keep on movin
tuning: standart
tabbed by: Eino Kolppanen

Mainriff/intro
|--------------------------------------|
|--------------------------------------|
|-2-2-2------------x-------------------|
|-2-2-2--4---------x-------------------|
|--------4-4-4-4-4-4-4-4-4-------------|
|----------2-2-2-2-2-2-2-2-------------|
PM         ...............

Repeat the mainriff as many time is needed
but when you move to verse play like this
|--------------------------------------|
|--------------------------------------|
|-2-2-2-4------------------------------|
|-2-2-2-4------------------------------|
|--------------------------------------|
|--------------------------------------|

verse

|--------------------------------------|
|--------------------------------------|
|-2-2-2-2--2--4------------------------|
|-2-2-2-2--2--4------------------------|
|-0-0-0-0------------------------------|
|--------------------------------------|
  .......

Repeat the mainriff

Chorus
|-----------------------------------------|
|-4-4-4-4-4-4-4-4-2-2-2-2-2-2-2-2-4-4-4-4-|
|-4-4-4-4-4-4-4-4-2-2-2-2-2-2-2-2-4-4-4-4-|
|-4-4-4-4-4-4-4-4-2-2-2-2-2-2-2-2-4-4-4-4-|
|-2-2-2-2-2-2-2-2-0-0-0-0-0-0-0-0-2-2-2-2-|
|-----------------------------------------|

|-----------------------------------------|
|-4-4-4-4--------2-2-2-2-2-2-2-2----------|
|-4-4-4-4--4p2-2-2-2-2-2-2-2-2-2----------|
|-4-4-4-4--4p2-2-2-2-2-2-2-2-2-2----------|
|-2-2-2-2--------0-0-0-0-0-0-0-0----------|
|-----------------------------------------|

Solo
|-----------------------------------------|
|-----------------------------------------|
|-----------------------------------------|
|------------------5-------------7p5------|
|-5~5~5~5~-7p5--5------7-5~5~5~5~----7----|
|--------------------------------------5-3|

|-----------------------------------------|
|----------------------------------8------|
|------------------------7-7-7-7-9-7------|
|-----------------5------7-7-7-7-9--------|
|-5~5~5~5~-7p5--5----7--------------------|
|-----------------------------------------|


|-----------------------------------------|
|-----------------------------------------|
|----5---5--7--5-----5----5---5-7-9-8-7-5-|
|-5--5-5-5--7--5--5--5--5-5-5-5-7-9-8-7-5-|
|-----------------------------------------|
|-----------------------------------------|


|-----------------------------------------|
|-----------------------------------------|
|-----5---5---5--7b-5------5---5---5-7b-7-|
|-5-5-5-5-5-5-5--7b-5--5-5-5-5-5-5-5-7b-7-|
|-----------------------------------------|
|-----------------------------------------|


|-----------------------------------------|
|----8------------------------------------|
|-9--7--9-7-9-7-5----7--x-x--x--5-x-x--x-7|
|-9-----9-7-9-7-5----7--x-x--x--5-x-x--x-7|
|-----------------------------------------|
|-----------------------------------------|
Добавлено: 25.11.2013
Другие материалы по этой песне:
  • Аккорды и текст

Страница создана 25.11.2013
http://primanota.ru/hurriganes/keep-on-movin-chords.htm
Привет, Гость.
Предлагаем пройти революционный курс по гитаре.
Подарок от PrimaNota.Ru, забирай!