PrimaNota.ru - самый крупный в мире бесплатный архив песенных текстов, аккордов, табулатур и нот


Hurriganes - Jailbird - таба, видео

Регистрация Запомнить меня
Войти через:  Facebook Google Twitter Vk Yandex Mail.ru

Hurriganes - Jailbird - таба, видео

Печатать
Просмотров: 68
Hurriganes- Jailbird

1. DESIREE
2. I'M READY
3. HIP DOWN
4. LET'S DRINK TODAY
5. OH YEAH!
6. PRETTY MONA
7. HOUSE PARTY
8. GET ALONG
9. BRAND NEW SUCKER
10. MISS BETTY
11. YA YA
12. LIPSTICK MAN



-------------------------------------------------------------------------------
Hurriganes-Desiree
Album: Jailbird (1979)
-------------------------------------------------------------------------------

Intro
e|---------------------------------------------------------------------------|
B|---9---9---10-9-------10-9---7---9--9---10-9-----10-9----7-----------------|
G|---9-----9------9----------9-7---9----9------9--------9--7-----------------|
D|---9--------------9----------7---9-------------9---------7-----------------|
A|---7-------------------------5---7-----------------------5--9-9-9-9-9-9-9-9|
E|------------------------------------------------------------7-7-7-7-7-7-7-7|

Verse
e|---------------------------------------------------------------------------|
B|---------------------------------------------------------------------------|
G|---------------------------------------------------------------------------|
D|--9-9-9-9-9-9-9-9-9-9-9-9-9-9-9-9------------------------------------------|
A|--7-7-7-7-7-7-7-7-7-7-7-7-7-7-7-7--9-9-9-9-9-9-9-9-9-9-9-9-9-9-9-9---------|
E|-----------------------------------7-7-7-7-7-7-7-7-7-7-7-7-7-7-7-7---------|

e|---------------------------------------------------------------------------|
B|---------------------------------------------------------------------------|
G|---------------------------------------------------------------------------|
D|--9-9-9-9-9-9-9-9-9-9-9-9-9-9-9-9------------------------------------------|
A|--7-7-7-7-7-7-7-7-7-7-7-7-7-7-7-7--9-9-9-9-9-9-9-9-9-9-9-9-9-9-9-9---------|
E|-----------------------------------7-7-7-7-7-7-7-7-7-7-7-7-7-7-7-7---------|

Chorus
e|---------------------------------------------------------------------------|
B|---------------------------------------------------------------------------|
G|---------------------------------------------------------------------------|
D|--6-6-6-6-6-6-6-6-6-6-6-6-6-6-6-6------------------------------------------|
A|--4-4-4-4-4-4-4-4-4-4-4-4-4-4-4-4--7-7-7-7-7-7-7-7-7-7-7-7-7-7-7-7---------|
E|-----------------------------------5-5-5-5-5-5-5-5-5-5-5-5-5-5-5-5---------|

e|---------------------------------------------------------------------------|
B|---------------------------------------------------------------------------|
G|---------------------------------------------------------------------------|
D|--6-6-6-6-6-6-6-6-6-6-6-6-6-6-6-6------------------------------------------|
A|--4-4-4-4-4-4-4-4-4-4-4-4-4-4-4-4--7-7-7-7-7-7-7-7-9-9-9-9-9-9-9-9---------|
E|-----------------------------------5-5-5-5-5-5-5-5-7-7-7-7-7-7-7-7---------|

e|---------------------------------------------------------------------------|
B|---9---9---10-9-------10-9---7---9--9---10-9-----10-9----7-----------------|
G|---9-----9------9----------9-7---9----9------9--------9--7-----------------|
D|---9--------------9----------7---9-------------9---------7-----------------|
A|---7-------------------------5---7-----------------------5-----------------|
E|---------------------------------------------------------------------------|

Verse
e|---------------------------------------------------------------------------|
B|---------------------------------------------------------------------------|
G|---------------------------------------------------------------------------|
D|--9-9-9-9-9-9-9-9-9-9-9-9-9-9-9-9------------------------------------------|
A|--7-7-7-7-7-7-7-7-7-7-7-7-7-7-7-7--9-9-9-9-9-9-9-9-9-9-9-9-9-9-9-9---------|
E|-----------------------------------7-7-7-7-7-7-7-7-7-7-7-7-7-7-7-7---------|

e|---------------------------------------------------------------------------|
B|---------------------------------------------------------------------------|
G|---------------------------------------------------------------------------|
D|--9-9-9-9-9-9-9-9-9-9-9-9-9-9-9-9------------------------------------------|
A|--7-7-7-7-7-7-7-7-7-7-7-7-7-7-7-7--9-9-9-9-9-9-9-9-9-9-9-9-9-9-9-9---------|
E|-----------------------------------7-7-7-7-7-7-7-7-7-7-7-7-7-7-7-7---------|

Chorus
e|---------------------------------------------------------------------------|
B|---------------------------------------------------------------------------|
G|---------------------------------------------------------------------------|
D|--6-6-6-6-6-6-6-6-6-6-6-6-6-6-6-6------------------------------------------|
A|--4-4-4-4-4-4-4-4-4-4-4-4-4-4-4-4--7-7-7-7-7-7-7-7-7-7-7-7-7-7-7-7---------|
E|-----------------------------------5-5-5-5-5-5-5-5-5-5-5-5-5-5-5-5---------|

e|---------------------------------------------------------------------------|
B|---------------------------------------------------------------------------|
G|---------------------------------------------------------------------------|
D|--6-6-6-6-6-6-6-6-6-6-6-6-6-6-6-6------------------------------------------|
A|--4-4-4-4-4-4-4-4-4-4-4-4-4-4-4-4--7-7-7-7-7-7-7-7-9-9-9-9-9-9-9-9---------|
E|-----------------------------------5-5-5-5-5-5-5-5-7-7-7-7-7-7-7-7---------|

Bridge
e|--12--------------11-----9--------12---------------11------9---------------|
B|--12--------------12----10--------12---------------12-----10---------------|
G|--13--------------11-----9--------13---------------11------9---------------|
D|--9-9-9-9-9-9-9-9------------------9-9-9-9-9-9-9-9-------------------------|
A|--7-7-7-7-7-7-7-7-9-9-9-9-7-7-7-7--7-7-7-7-7-7-7-7--9-9-9-9-7-7-7-7--------|
E|------------------7-7-7-7-5-5-5-5-------------------7-7-7-7-5-5-5-5--------|

e|--12--------------11-----9--------12---------------11------9---------------|
B|--12--------------12----10--------12---------------12-----10---------------|
G|--13--------------11-----9--------13---------------11------9---------------|
D|--9-9-9-9-9-9-9-9------------------9-9-9-9-9-9-9-9-------------------------|
A|--7-7-7-7-7-7-7-7-9-9-9-9-7-7-7-7--7-7-7-7-7-7-7-7--9-9-9-9-7-7-7-7--------|
E|------------------7-7-7-7-5-5-5-5-------------------7-7-7-7-5-5-5-5--------|


e|---------------------------------------------------------------------------|
B|---------------------------------------------------------------------------|
G|---------------------------------------------------------------------------|
D|---------------------------------------------------------------------------|
A|--9-9-9-9-9-9-9-9-9-9-9-9-9-9-9-9------------------------------------------|
E|--7-7-7-7-7-7-7-7-7-7-7-7-7-7-7-7------------------------------------------|

Keyboard solo
e|---------------------------------------------------------------------------|
B|---------------------------------------------------------------------------|
G|---------------------------------------------------------------------------|
D|--9-9-9-9-9-9-9-9-9-9-9-9-9-9-9-9------------------------------------------|
A|--7-7-7-7-7-7-7-7-7-7-7-7-7-7-7-7--9-9-9-9-9-9-9-9-9-9-9-9-9-9-9-9---------|
E|-----------------------------------7-7-7-7-7-7-7-7-7-7-7-7-7-7-7-7---------|

e|---------------------------------------------------------------------------|
B|---------------------------------------------------------------------------|
G|---------------------------------------------------------------------------|
D|--9-9-9-9-9-9-9-9-9-9-9-9-9-9-9-9------------------------------------------|
A|--7-7-7-7-7-7-7-7-7-7-7-7-7-7-7-7--9-9-9-9-9-9-9-9-9-9-9-9-9-9-9-9---------|
E|-----------------------------------7-7-7-7-7-7-7-7-7-7-7-7-7-7-7-7---------|

e|---------------------------------------------------------------------------|
B|---------------------------------------------------------------------------|
G|---------------------------------------------------------------------------|
D|--6-6-6-6-6-6-6-6-6-6-6-6-6-6-6-6------------------------------------------|
A|--4-4-4-4-4-4-4-4-4-4-4-4-4-4-4-4--7-7-7-7-7-7-7-7-7-7-7-7-7-7-7-7---------|
E|-----------------------------------5-5-5-5-5-5-5-5-5-5-5-5-5-5-5-5---------|

e|---------------------------------------------------------------------------|
B|---------------------------------------------------------------------------|
G|---------------------------------------------------------------------------|
D|--6-6-6-6-6-6-6-6-6-6-6-6-6-6-6-6------------------------------------------|
A|--4-4-4-4-4-4-4-4-4-4-4-4-4-4-4-4--7-7-7-7-7-7-7-7-9-9-9-9-9-9-9-9---------|
E|-----------------------------------5-5-5-5-5-5-5-5-7-7-7-7-7-7-7-7---------|

Verse
e|---------------------------------------------------------------------------|
B|---------------------------------------------------------------------------|
G|---------------------------------------------------------------------------|
D|--9-9-9-9-9-9-9-9-9-9-9-9-9-9-9-9------------------------------------------|
A|--7-7-7-7-7-7-7-7-7-7-7-7-7-7-7-7--9-9-9-9-9-9-9-9-9-9-9-9-9-9-9-9---------|
E|-----------------------------------7-7-7-7-7-7-7-7-7-7-7-7-7-7-7-7---------|

e|---------------------------------------------------------------------------|
B|---------------------------------------------------------------------------|
G|---------------------------------------------------------------------------|
D|--9-9-9-9-9-9-9-9-9-9-9-9-9-9-9-9------------------------------------------|
A|--7-7-7-7-7-7-7-7-7-7-7-7-7-7-7-7--9-9-9-9-9-9-9-9-9-9-9-9-9-9-9-9---------|
E|-----------------------------------7-7-7-7-7-7-7-7-7-7-7-7-7-7-7-7---------|

Chorus
e|---------------------------------------------------------------------------|
B|---------------------------------------------------------------------------|
G|---------------------------------------------------------------------------|
D|--6-6-6-6-6-6-6-6-6-6-6-6-6-6-6-6------------------------------------------|
A|--4-4-4-4-4-4-4-4-4-4-4-4-4-4-4-4--7-7-7-7-7-7-7-7-7-7-7-7-7-7-7-7---------|
E|-----------------------------------5-5-5-5-5-5-5-5-5-5-5-5-5-5-5-5---------|

e|---------------------------------------------------------------------------|
B|---------------------------------------------------------------------------|
G|---------------------------------------------------------------------------|
D|--6-6-6-6-6-6-6-6-6-6-6-6-6-6-6-6------------------------------------------|
A|--4-4-4-4-4-4-4-4-4-4-4-4-4-4-4-4--7-7-7-7-7-7-7-7-9-9-9-9-9-9-9-9---------|
E|-----------------------------------5-5-5-5-5-5-5-5-7-7-7-7-7-7-7-7---------|

Bridge
e|--12--------------11-----9--------12---------------11------9---------------|
B|--12--------------12----10--------12---------------12-----10---------------|
G|--13--------------11-----9--------13---------------11------9---------------|
D|--9-9-9-9-9-9-9-9------------------9-9-9-9-9-9-9-9-------------------------|
A|--7-7-7-7-7-7-7-7-9-9-9-9-7-7-7-7--7-7-7-7-7-7-7-7--9-9-9-9-7-7-7-7--------|
E|------------------7-7-7-7-5-5-5-5-------------------7-7-7-7-5-5-5-5--------|

e|--12--------------11-----9--------12---------------11------9---------------|
B|--12--------------12----10--------12---------------12-----10---------------|
G|--13--------------11-----9--------13---------------11------9---------------|
D|--9-9-9-9-9-9-9-9------------------9-9-9-9-9-9-9-9-------------------------|
A|--7-7-7-7-7-7-7-7-9-9-9-9-7-7-7-7--7-7-7-7-7-7-7-7--9-9-9-9-7-7-7-7--------|
E|------------------7-7-7-7-5-5-5-5-------------------7-7-7-7-5-5-5-5--------|

e|--12--------------11-----9--------12---------------11------9---------------|
B|--12--------------12----10--------12---------------12-----10---------------|
G|--13--------------11-----9--------13---------------11------9---------------|
D|--9-9-9-9-9-9-9-9------------------9-9-9-9-9-9-9-9-------------------------|
A|--7-7-7-7-7-7-7-7-9-9-9-9-7-7-7-7--7-7-7-7-7-7-7-7--9-9-9-9-7-7-7-7--------|
E|------------------7-7-7-7-5-5-5-5-------------------7-7-7-7-5-5-5-5--------|

e|--12--------------11-----9-----------12------------------------------------|
B|--12--------------12----10-----------12------------------------------------|
G|--13--------------11-----9-----------13------------------------------------|
D|--9-9-9-9-9-9-9-9--------------------14------------------------------------|
A|--7-7-7-7-7-7-7-7-9-9-9-9-7-7-7-7----14------------------------------------|
E|------------------7-7-7-7-5-5-5-5----12------------------------------------|

-------------------------------------------------------------------------------
Hurriganes-I'm Ready
Album: Jailbird (1979)
-------------------------------------------------------------------------------

Intro
e|---5--5--5--5--5----------------|
B|---5--5--5--5--5--7--5----------|
G|------------------7--5----------|
D|------------------------7-------|
A|--------------------------------|
E|--------------------------------|

Verse 1&2
e|---------------------------------------------------------------------------|
B|---------------------------------------------------------------------------|
G|---------------------------------------------------------------------------|
D|---------------------------------------------------------------------------|
A|--7-7-9-7-7-7-9-7-7-7-9-7-7-7-9-7-7-7-9-7-7-7-9-7-7-7-9-7-7-7-9-7----------|
E|--5-5-5-5-5-5-5-5-5-5-5-5-5-5-5-5-5-5-5-5-5-5-5-5-5-5-5-5-5-5-5-5----------|

e|---------------------------------------------------------------------------|
B|---------------------------------------------------------------------------|
G|---------------------------------------------------------------------------|
D|--7-7-9-7-7-7-9-7-7-7-9-7-7-7-9-7------------------------------------------|
A|--5-5-5-5-5-5-5-5-5-5-5-5-5-5-5-5-7-7-9-7-7-7-9-7-7-7-9-7-7-7-9-7----------|
E|----------------------------------5-5-5-5-5-5-5-5-5-5-5-5-5-5-5-5----------|

e|---------------------------------------------------------------------------|
B|---------------------------------------------------------------------------|
G|---------------------------------------------------------------------------|
D|---9-9-119-9-9-119-9-9-119-9-9-119-----------------------------------------|
A|---7-7-7-7-7-7-7-7-7-7-7-7-7-7-7-7-7-7-7-7-7-7-7-7-7-7-7-7-7-7-7-7---------|
E|-----------------------------------5-5-5-5-5-5-5-5-5-5-5-5-5-5-5-5---------|

Verse 3
e|---------------------------------------------------------------------------|
B|---------------------------------------------------------------------------|
G|---------------------------------------------------------------------------|
D|---------------------------------------------------------------------------|
A|---8-8-8-8-8-8-8-8-8-8-8-8-8-8-8-8-8-8-8-8-8-8-8-8-8-8-8-8-8-8-8-8---------|
E|---6-6-6-6-6-6-6-6-6-6-6-6-6-6-6-6-6-6-6-6-6-6-6-6-6-6-6-6-6-6-6-6---------|

e|---------------------------------------------------------------------------|
B|---------------------------------------------------------------------------|
G|---------------------------------------------------------------------------|
D|---8-8-8-8-8-8-8-8-8-8-8-8-8-8-8-8-----------------------------------------|
A|---6-6-6-6-6-6-6-6-6-6-6-6-6-6-6-6-8-8-8-8-8-8-8-8-8-8-8-8-8-8-8-8---------|
E|-----------------------------------6-6-6-6-6-6-6-6-6-6-6-6-6-6-6-6---------|

e|---------------------------------------------------------------------------|
B|---------------------------------------------------------------------------|
G|---------------------------------------------------------------------------|
D|--10-10-10-10-10-10-10-10-8-8-8-8-8-8-8-8----------------------------------|
A|---8--8--8--8--8--8--8--8-6-6-6-6-6-6-6-6-8-8-8-8-8-8-8-8-8-8-8-8-8-8-8-8--|
E|------------------------------------------6-6-6-6-6-6-6-6-6-6-6-6-6-6-6-6--|

Solo
e|---------------------------------------------------------------------------|
B|-/-9--9--9-/-9--9--9-/-9--9-/-9--9--9-/-9--9--9-/-9--9-/-9--9--9-/-9--9--9-|
G|-/10-10-10-/10-10-10-/10-10-/10-10-10-/10-10-10-/10-10-/10-10-10-/10-10-10-|
D|---------------------------------------------------------------------------|
A|---------------------------------------------------------------------------|
E|---------------------------------------------------------------------------|

e|-----------------------------------------------------------------6------6--|
B|--9-/-9--9--9-/-9--9--9--9--8-8-8-6-8-8-8-6-8-8-8-6-8-8-8-6----------------|
G|-10-/10-10-10-/10-10-10-10--8-8-8-6-8-8-8-6-8-8-8-6-8-8-8-6-8b10---8b10----|
D|---------------------------------------------------------------------------|
A|---------------------------------------------------------------------------|
E|---------------------------------------------------------------------------|

e|------6------6------6------6------6------6------6------6------6------------|
B|---------------------------------------------------------------------------|
G|-8b10---8b10---8b10---8b10---8b10---8b10---8b10---8b10---8b10--------------|
D|---------------------------------------------------------------------------|
A|---------------------------------------------------------------------------|
E|---------------------------------------------------------------------------|

e|---8-6---------------------------------------------------------------------|
B|-------9-8-6---6------6----------------------------------------------------|
G|-------------8---8b10---8-6h7----------------------------------------------|
D|------------------------------8--------------------------------------------|
A|---------------------------------------------------------------------------|
E|---------------------------------------------------------------------------|

Verse 4
e|---------------------------------------------------------------------------|
B|---------------------------------------------------------------------------|
G|---------------------------------------------------------------------------|
D|---------------------------------------------------------------------------|
A|---8-8-8-8-8-8-8-8-8-8-8-8-8-8-8-8-8-8-8-8-8-8-8-8-8-8-8-8-8-8-8-8---------|
E|---6-6-6-6-6-6-6-6-6-6-6-6-6-6-6-6-6-6-6-6-6-6-6-6-6-6-6-6-6-6-6-6---------|

e|---------------------------------------------------------------------------|
B|---------------------------------------------------------------------------|
G|---------------------------------------------------------------------------|
D|---8-8-8-8-8-8-8-8-8-8-8-8-8-8-8-8-----------------------------------------|
A|---6-6-6-6-6-6-6-6-6-6-6-6-6-6-6-6-8-8-8-8-8-8-8-8-8-8-8-8-8-8-8-8---------|
E|-----------------------------------6-6-6-6-6-6-6-6-6-6-6-6-6-6-6-6---------|

e|---------------------------------------------------------------------------|
B|---------------------------------------------------------------------------|
G|---------------------------------------------------------------------------|
D|--10-10-10-10-10-10-10-10-8-8-8-8-8-8-8-8----------------------------------|
A|---8--8--8--8--8--8--8--8-6-6-6-6-6-6-6-6-8-8-8-8-8-8-8-8-8-8-8-8-8-8-8-8--|
E|------------------------------------------6-6-6-6-6-6-6-6-6-6-6-6-6-6-6-6--|

Verse 5
e|---------------------------------------------------------------------------|
B|---------------------------------------------------------------------------|
G|---------------------------------------------------------------------------|
D|---4-4-6-4-4-4-6-4-4-4-6-4-4-4-6-4-4-4-6-4-4-4-6-4-4-4-6-4-4-4-6-4---------|
A|---2-2-2-2-2-2-2-2-2-2-2-2-2-2-2-2-2-2-2-2-2-2-2-2-2-2-2-2-2-2-2-2---------|
E|---------------------------------------------------------------------------|

e|---------------------------------------------------------------------------|
B|---------------------------------------------------------------------------|
G|---4-4-6-4-4-4-6-4-4-4-6-4-4-4-6-4-----------------------------------------|
D|---2-2-2-2-2-2-2-2-2-2-2-2-2-2-2-2-4-4-6-4-4-4-6-4-4-4-6-4-4-4-6-4---------|
A|-----------------------------------2-2-2-2-2-2-2-2-2-2-2-2-2-2-2-2---------|
E|---------------------------------------------------------------------------|

e|---------------------------------------------------------------------------|
B|---------------------------------------------------------------------------|
G|---6-6-8-6-6-6-8-6-6-6-8-6-6-6-8-6-----------------------------------------|
D|---4-4-4-4-4-4-4-4-4-4-4-4-4-4-4-4-4-4-6-4-4-4-6-4-4-4-6-4-4-4-6-4---------|
A|-----------------------------------2-2-2-2-2-2-2-2-2-2-2-2-2-2-2-2---------|
E|---------------------------------------------------------------------------|

Verse 6
e|---------------------------------------------------------------------------|
B|---------------------------------------------------------------------------|
G|---------------------------------------------------------------------------|
D|---5-5-7-5-5-5-7-5-5-5-7-5-5-5-7-5-5-5-7-5-5-5-7-5-5-5-7-5-5-5-7-5---------|
A|---3-3-3-3-3-3-3-3-3-3-3-3-3-3-3-3-3-3-3-3-3-3-3-3-3-3-3-3-3-3-3-3---------|
E|---------------------------------------------------------------------------|

e|---------------------------------------------------------------------------|
B|---------------------------------------------------------------------------|
G|---5-5-7-5-5-5-7-5-5-5-7-5-5-5-7-5-----------------------------------------|
D|---3-3-3-3-3-3-3-3-3-3-3-3-3-3-3-3-5-5-7-5-5-5-7-5-5-5-7-5-5-5-7-5---------|
A|-----------------------------------3-3-3-3-3-3-3-3-3-3-3-3-3-3-3-3---------|
E|---------------------------------------------------------------------------|

e|---------------------------------------------------------------------------|
B|---------------------------------------------------------------------------|
G|---7-7-9-7-7-7-9-7-7-7-9-7-7-7-9-7-----------------------------------------|
D|---5-5-5-5-5-5-5-5-5-5-5-5-5-5-5-5-5-5-7-5-5-5-7-5-5-5-5-5-----------------|
A|-----------------------------------3-3-3-3-3-3-3-3-3-3-3-3-----------------|
E|---------------------------------------------------------------------------|

-------------------------------------------------------------------------------
Hurriganes-Hip Down
Album: Jailbird (1979)
-------------------------------------------------------------------------------

Intro
e|---------------------------------------------------------------------------|
B|---------------------------------------------------------------------------|
G|---------------------------------------------------------------------------|
D|---2-2-4-2-2-2-4-2-2-2-4-2-2-2-4-2-2-2-4-2-2-2-4-2-2-2-4-2-2-2-4-2---------|
A|---0-0-0-0-0-0-0-0-0-0-0-0-0-0-0-0-0-0-0-0-0-0-0-0-0-0-0-0-0-0-0-0---------|
E|---------------------------------------------------------------------------|

Verse
e|---------------------------------------------------------------------------|
B|---------------------------------------------------------------------------|
G|---------------------------------------------------------------------------|
D|---2-2-4-2-2-2-4-2-2-2-4-2-2-2-4-2-2-2-4-2-2-2-4-2-2-2-4-2-2-2-4-2---------|
A|---0-0-0-0-0-0-0-0-0-0-0-0-0-0-0-0-0-0-0-0-0-0-0-0-0-0-0-0-0-0-0-0---------|
E|---------------------------------------------------------------------------|

e|---------------------------------------------------------------------------|
B|---------------------------------------------------------------------------|
G|---2-2-4-2-2-2-4-2-2-2-4-2-2-2-4-2-----------------------------------------|
D|---0-0-0-0-0-0-0-0-0-0-0-0-0-0-0-0-2-2-4-2-2-2-4-2-2-2-4-2-2-2-4-2---------|
A|-----------------------------------0-0-0-0-0-0-0-0-0-0-0-0-0-0-0-0---------|
E|---------------------------------------------------------------------------|

e|---------------------------------------------------------------------------|
B|---------------------------------------------------------------------------|
G|-------------------2-2-4-2-2-2-4-2-----------------------------------------|
D|-------------------0-0-0-0-0-0-0-0-2-2-4-2-2-2-4-2-------------------------|
A|---2-2-4-2-2-2-4-2-----------------0-0-0-0-0-0-0-0--2-2-2-2-2-2-2----------|
E|---0-0-0-0-0-0-0-0----------------------------------0-0-0-0-0-0-0----------|

Verse
e|---------------------------------------------------------------------------|
B|---------------------------------------------------------------------------|
G|---------------------------------------------------------------------------|
D|---2-2-4-2-2-2-4-2-2-2-4-2-2-2-4-2-2-2-4-2-2-2-4-2-2-2-4-2-2-2-4-2---------|
A|---0-0-0-0-0-0-0-0-0-0-0-0-0-0-0-0-0-0-0-0-0-0-0-0-0-0-0-0-0-0-0-0---------|
E|---------------------------------------------------------------------------|

e|---------------------------------------------------------------------------|
B|---------------------------------------------------------------------------|
G|---2-2-4-2-2-2-4-2-2-2-4-2-2-2-4-2-----------------------------------------|
D|---0-0-0-0-0-0-0-0-0-0-0-0-0-0-0-0-2-2-4-2-2-2-4-2-2-2-4-2-2-2-4-2---------|
A|-----------------------------------0-0-0-0-0-0-0-0-0-0-0-0-0-0-0-0---------|
E|---------------------------------------------------------------------------|

e|---------------------------------------------------------------------------|
B|---------------------------------------------------------------------------|
G|-------------------2-2-4-2-2-2-4-2-----------------------------------------|
D|-------------------0-0-0-0-0-0-0-0-2-2-4-2-2-2-4-2-------------------------|
A|---2-2-4-2-2-2-4-2-----------------0-0-0-0-0-0-0-0--2-2-2-2-2-2-2----------|
E|---0-0-0-0-0-0-0-0----------------------------------0-0-0-0-0-0-0----------|

Solo (w/wah-wah)
e|---------------------------------------------------------------------------|
B|------------------------------------------------17-------------------------|
G|--16b17-14-16b17-14----14-14-----------14----14----14----14-16b17-14----14-|
D|--------------------16-------16/-14/16----16----------16-------------16----|
A|---------------------------------------------------------------------------|
E|---------------------------------------------------------------------------|

e|-------------------------------------------------------------------------------|
B|--------------15-17------------------------------------------------------------|
G|-----14-16b17-------16b17-16b17-14----14----14-16-16b17----16-14---------------|
D|--16-------------------------------16----16-------------16-------16-10---------|
A|-----------------------------------------------------------------------12-x----|
E|----------------------------------------------------------------------------12-|

Verse
e|---------------------------------------------------------------------------|
B|---------------------------------------------------------------------------|
G|---------------------------------------------------------------------------|
D|---2-2-4-2-2-2-4-2-2-2-4-2-2-2-4-2-2-2-4-2-2-2-4-2-2-2-4-2-2-2-4-2---------|
A|---0-0-0-0-0-0-0-0-0-0-0-0-0-0-0-0-0-0-0-0-0-0-0-0-0-0-0-0-0-0-0-0---------|
E|---------------------------------------------------------------------------|

e|---------------------------------------------------------------------------|
B|---------------------------------------------------------------------------|
G|---2-2-4-2-2-2-4-2-2-2-4-2-2-2-4-2-----------------------------------------|
D|---0-0-0-0-0-0-0-0-0-0-0-0-0-0-0-0-2-2-4-2-2-2-4-2-2-2-4-2-2-2-4-2---------|
A|-----------------------------------0-0-0-0-0-0-0-0-0-0-0-0-0-0-0-0---------|
E|---------------------------------------------------------------------------|

e|---------------------------------------------------------------------------|
B|---------------------------------------------------------------------------|
G|-------------------2-2-4-2-2-2-4-2-----------------------------------------|
D|-------------------0-0-0-0-0-0-0-0-2-2-4-2-2-2-4-2-2-2-4-2-2-2-4-2---------|
A|---2-2-4-2-2-2-4-2-----------------0-0-0-0-0-0-0-0-0-0-0-0-0-0-0-0---------|
E|---0-0-0-0-0-0-0-0---------------------------------------------------------|

e|---------------------------------------------------------------------------|
B|---------------------------------------------------------------------------|
G|-------------------2-2-4-2-2-2-4-2-----------------------------------------|
D|-------------------0-0-0-0-0-0-0-0-2-2-4-2-2-2-4-2-2-2-4-2-2-2-4-2---------|
A|---2-2-4-2-2-2-4-2-----------------0-0-0-0-0-0-0-0-0-0-0-0-0-0-0-0---------|
E|---0-0-0-0-0-0-0-0---------------------------------------------------------|

e|---------------------------------------------------------------------------|
B|---------------------------------------2-2---2-----2-----------------------|
G|-------------------2-2-4-2-2-2-4-2-----2-2---2-----2-----------------------|
D|-------------------0-0-0-0-0-0-0-0--2------4---4-2----5--6--7-------7\-----|
A|---2-2-4-2-2-2-4-2------------------0-----------------5--6--7-------7\-----|
E|---0-0-0-0-0-0-0-0------------------------------------3--4--5-------5\-----|

-------------------------------------------------------------------------------
Hurriganes- Let's Drink Today
Album: Jailbird (1979)
-------------------------------------------------------------------------------

Intro			 hold bend
e|---------------------------------------------------------------------------|
B|-/-3-3-3-3-3-----3-3-3-----------------------------------------------------|
G|-/-4-4-4-4-4-2b4-4-4-4-4r2-0-----------------------------------------------|
D|-----------------------------2-0----------2--------2--------2--------------|
A|----------------------------------2-4-5-4-2--2-5-4-2--2-5-4-2--2-5-4-------|
E|----------------------------------0-0-0-0-0--0-0-0-0--0-0-0-0--0-0-0-------|

Verse
e|---------------------------|
B|---------------------------|
G|---------------------------| 8x
D|---2-----------------------|
A|---2-2-5-4-----------------|
E|---0-0-0-0-----------------|

Chorus
e|---------------------------------------------------------------------------|
B|----------5-------------------------------------3--------------------------|
G|------4b6---r4-2----------------------------2b4---2p1----------------------|2x
D|--2-2-4-2-2-2-4-2-2-2-4-2-2-2-4-2---------------------2--------------------|
A|--0-0-0-0-0-0-0-0-0-0-0-0-0-0-0-0--2-2-4-2-2-2-4-2-2-2-4-2-2-2-4-2---------|
E|-----------------------------------0-0-0-0-0-0-0-0-0-0-0-0-0-0-0-0---------|

Verse
e|---------------------------|
B|---------------------------|
G|---------------------------| 8x
D|---2-----------------------|
A|---2-2-5-4-----------------|
E|---0-0-0-0-----------------|

Chorus
e|---------------------------------------------------------------------------|
B|----------5-------------------------------------3--------------------------|
G|------4b6---r4-2----------------------------2b4---2p1----------------------|
D|--2-2-4-2-2-2-4-2-2-2-4-2-2-2-4-2---------------------2--------------------|
A|--0-0-0-0-0-0-0-0-0-0-0-0-0-0-0-0--2-2-4-2-2-2-4-2-2-2-4-2-2-2-4-2---------|
E|-----------------------------------0-0-0-0-0-0-0-0-0-0-0-0-0-0-0-0---------|

e|--------------------------------------7--------7---------------------------|
B|----------5-----------------------5/7----10b12---10\-----------------------|
G|------4b6---r4-2-----------------------------------------------------------|
D|--2-2-4-2-2-2-4-2-2-2-4-2-2-2-4-2--4-4-4-4-4-4-4-4-4-4-4-4-4-4-4-4---------|
A|--0-0-0-0-0-0-0-0-0-0-0-0-0-0-0-0--2-2-2-2-2-2-2-2-2-2-2-2-2-2-2-2---------|
E|---------------------------------------------------------------------------|

Solo
   A5							E5
e|---------------------------------------------------------------------------|
B|----------------------------------------12b14-10-12-8h9--------------------|
G|------9----9-11-9-11b13r11-9----9-9---------------------9p7---7-6-7--------|
D|--/11---11-------------------11-----11----------------------9--------------|
A|---------------------------------------------------------------------------|
E|---------------------------------------------------------------------------|

		 A5							B5
e|-----------------12--------------------------------------------------------|
B|-----------------12------------------------------------12----12-12---12----|
G|---------9-11b13-hold-r11-9-11b13r11-9----9-9-------------14------14-------|
D|----9/11-------------------------------11-----11-12-13---------------------|
A|---------------------------------------------------------------------------|
E|---------------------------------------------------------------------------|

e|-----------------------------|
B|-----------------------------|
G|-----------------------------|
D|---2-----2-2-----------------|
A|-----2h4-----4p2-------------|
E|-----------------4-----------|

Verse
e|--------------------------|
B|--------------------------|
G|--------------------------| 8x
D|---2----------------------|
A|---2-2-5-4----------------|
E|---0-0-0-0----------------|

Chorus
e|---------------------------------------------------------------------------|
B|----------5-------------------------------------3--------------------------|
G|------4b6---r4-2----------------------------2b4---2p1----------------------|4x
D|--2-2-4-2-2-2-4-2-2-2-4-2-2-2-4-2---------------------2--------------------|
A|--0-0-0-0-0-0-0-0-0-0-0-0-0-0-0-0--2-2-4-2-2-2-4-2-2-2-4-2-2-2-4-2---------|
E|-----------------------------------0-0-0-0-0-0-0-0-0-0-0-0-0-0-0-0---------|

e|------------|
B|------------|
G|------------|
D|---2--------|
A|---2--------|
E|---0--------|

-------------------------------------------------------------------------------
Hurriganes- Oh Yeah!
Album: Jailbird (1979)
-------------------------------------------------------------------------------

Intro (slide guitar)
A5
e|---------------------------------------------------------------------------|
B|---------------------14--14\12/14--14\12/14--------------------------------|
G|14-14\-12/-14\12/14--14--14\12/14--14\12/14--------------------------------|
D|14-14\-12/-14\12/14--14--14\12/14--14\12/14--------------------------------|
A|---------------------------------------------------------------------------|
E|---------------------------------------------------------------------------|

Verse
e|---------------------------------------------------------------------------|
B|---------------------------------------------------------------------------|
G|---------------------------------------------------------------------------|
D|---2-2-4-2-2-2-4-2-2-2-4-2-2-2-4-2-2-2-4-2-2-2-4-2-2-2-4-2-2-2-4-2---------|
A|---0-0-0-0-0-0-0-0-0-0-0-0-0-0-0-0-0-0-0-0-0-0-0-0-0-0-0-0-0-0-0-0---------|
E|---------------------------------------------------------------------------|

e|---------------------------------------------------------------------------|
B|---------------------------------------------------------------------------|
G|---------------------------------------------------------------------------|
D|---2-2-4-2-2-2-4-2-2-2-4-2-2-2-4-2-2-2-4-2-2-2-4-2-2-2-4-2-2-2-4-2---------|
A|---0-0-0-0-0-0-0-0-0-0-0-0-0-0-0-0-0-0-0-0-0-0-0-0-0-0-0-0-0-0-0-0---------|
E|---------------------------------------------------------------------------|
 |
e|---------------------------------------------------------------------------|
B|----------------------------------------------14\-/14-\--------------------|
G|----------------------------------------------14\-/14-\--------------------|
D|----------------------------------------------14\-/14-\--------------------|
A|---------------------------------------------------------------------------|
E|---------------------------------------------------------------------------|

Instrumental Break
A5
e|---------------------------------------------------------------------------|
B|-------17------------------------17----17----------------------------------|
G|---/18----18\--14-14\-9/-14--/18---/18----18\-14---------------------------|
D|---------------14-14\-9/-14-------------------14---------------------------|
A|---------------------------------------------------------------------------|
E|---------------------------------------------------------------------------|

Verse
e|---------------------------------------------------------------------------|
B|---------------------------------------------------------------------------|
G|---------------------------------------------------------------------------|
D|---2-2-4-2-2-2-4-2-2-2-4-2-2-2-4-2-2-2-4-2-2-2-4-2-2-2-4-2-2-2-4-2---------|
A|---0-0-0-0-0-0-0-0-0-0-0-0-0-0-0-0-0-0-0-0-0-0-0-0-0-0-0-0-0-0-0-0---------|
E|---------------------------------------------------------------------------|

e|---------------------------------------------------------------------------|
B|---------------------------------------------------------------------------|
G|---------------------------------------------------------------------------|
D|---2-2-4-2-2-2-4-2-2-2-4-2-2-2-4-2-2-2-4-2-2-2-4-2-2-2-4-2-2-2-4-2---------|
A|---0-0-0-0-0-0-0-0-0-0-0-0-0-0-0-0-0-0-0-0-0-0-0-0-0-0-0-0-0-0-0-0---------|
E|---------------------------------------------------------------------------|

Instrumental Break
A5
e|---------------------------------------------------------------------------|
B|-------17----------------------5--5----5---5-5-----------------------------|
G|---/18----18\--14-14\-9/-14----5--5----5---5-5-----------------------------|
D|---------------14-14\-9/-14----------7---7-----7---------------------------|
A|---------------------------------------------------------------------------|
E|---------------------------------------------------------------------------|

Chorus
D5			A5
e|---------------------------------------------------------------------------|
B|--/-7-----/7---5-\-2-------------------2-----------------------------------|
G|--/-7-----/7---6-\-2-------14\-9-/-14--2--14-\-9-/14-----------------------|
D|--/-7-----/7-------2-------14\-9-/-14--2--14-\-9-/14-----------------------|
A|---------------------------------------------------------------------------|
E|---------------------------------------------------------------------------|

E5	    D5
e|---------------------------------------------------------------------------|
B|---9----7------------------------------------------------------------------|
G|---9----7------------------------------------------------------------------|
D|---9----7------------------------------------------------------------------|
A|---------------------------------------------------------------------------|
E|---------------------------------------------------------------------------|

Verse
e|---------------------------------------------------------------------------|
B|---------------------------------------------------------------------------|
G|---------------------------------------------------------------------------|
D|---2-2-4-2-2-2-4-2-2-2-4-2-2-2-4-2-2-2-4-2-2-2-4-2-2-2-4-2-2-2-4-2---------|
A|---0-0-0-0-0-0-0-0-0-0-0-0-0-0-0-0-0-0-0-0-0-0-0-0-0-0-0-0-0-0-0-0---------|
E|---------------------------------------------------------------------------|

e|---------------------------------------------------------------------------|
B|---------------------------------------------------------------------------|
G|---------------------------------------------------------------------------|
D|---2-2-4-2-2-2-4-2-2-2-4-2-2-2-4-2-2-2-4-2-2-2-4-2-2-2-4-2-2-2-4-2---------|
A|---0-0-0-0-0-0-0-0-0-0-0-0-0-0-0-0-0-0-0-0-0-0-0-0-0-0-0-0-0-0-0-0---------|
E|---------------------------------------------------------------------------|

Instrumental Break
A5
e|---------------------------------------------------------------------------|
B|----14-\-/-14-------17-----------------------------------------------------|
G|----14-\-/-14---/18----/18--14------14\-9/-14------------------------------|
D|----14-\-/-14---------------14------14\-9/-14------------------------------|
A|---------------------------------------------------------------------------|
E|---------------------------------------------------------------------------|

Verse
e|---------------------------------------------------------------------------|
B|---------------------------------------------------------------------------|
G|---------------------------------------------------------------------------|
D|---2-2-4-2-2-2-4-2-2-2-4-2-2-2-4-2-2-2-4-2-2-2-4-2-2-2-4-2-2-2-4-2---------|
A|---0-0-0-0-0-0-0-0-0-0-0-0-0-0-0-0-0-0-0-0-0-0-0-0-0-0-0-0-0-0-0-0---------|
E|---------------------------------------------------------------------------|

e|---------------------------------------------------------------------------|
B|---------------------------------------------------------------------------|
G|---------------------------------------------------------------------------|
D|---2-2-4-2-2-2-4-2-2-2-4-2-2-2-4-2-2-2-4-2-2-2-4-2-2-2-4-2-2-2-4-2---------|
A|---0-0-0-0-0-0-0-0-0-0-0-0-0-0-0-0-0-0-0-0-0-0-0-0-0-0-0-0-0-0-0-0---------|
E|---------------------------------------------------------------------------|
 |
e|---------------------------------------------------------------------------|
B|----------------------------------------------14\--------------------------|
G|----------------------------------------------14\--------------------------|
D|----------------------------------------------14\--------------------------|
A|---------------------------------------------------------------------------|
E|---------------------------------------------------------------------------|

Instrumental Break
A5
e|---------------------------------------------------------------------------|
B|-----------17--------------5--5-----------------17-------------------------|
G|-------/18----/18--14------5--5-------------/18----/18--14---14\9/14-------|
D|-------------------14------------7---------------------------14\9/14-------|
A|---------------------------------------------------------------------------|
E|---------------------------------------------------------------------------|

Chorus
D5			A5
e|---------------------------------------------------------------------------|
B|--/-7-----/7-------2-------------------2-----------------------------------|
G|--/-7-----/7-------2-------14\-9-/-14--2--14-\-9-/14-----------------------|
D|--/-7-----/7-------2-------14\-9-/-14--2--14-\-9-/14-----------------------|
A|---------------------------------------------------------------------------|
E|---------------------------------------------------------------------------|

E5	    D5	   A5
e|---------------------------------------------------------------------------|
B|--/-9-----/7-------2-------------------2-----------------------2-/---------|
G|--/-9-----/7-------2-------14\-9-/-14--2--14-\-9-/14-----------2-/---------|
D|--/-9-----/7-------2-------14\-9-/-14--2--14-\-9-/14-----------2-/---------|
A|---------------------------------------------------------------------------|
E|---------------------------------------------------------------------------|

Solo
A5  |---------2x---------------------------------------------------------------|
e|---------------------------------17----17----17----17-19/20-20\--------------|
B|-------17--------------------/19----19----19----19---------------------------|
G|---/18----18\--14-14\-9/-14--------------------------------------------------|
D|---------------14-14\-9/-14--------------------------------------------------|
A|-----------------------------------------------------------------------------|
E|-----------------------------------------------------------------------------|

e|---------------------------------19----19----19----19----19----------------|
B|-------17--------------------/21----21----21----21----21-------------------|
G|---/18----18\--14-14\-9/-14------------------------------------------------|
D|---------------14-14\-9/-14------------------------------------------------|
A|---------------------------------------------------------------------------|
E|---------------------------------------------------------------------------|

e|---------------------------------------------------------------------------|
B|-------17------17----------------------------------------------------------|
G|---/18----18---18-14\-9/-14------------------------------------------------|
D|------------------14\-9/-14------------------------------------------------|
A|---------------------------------------------------------------------------|
E|---------------------------------------------------------------------------|

Verse
e|---------------------------------------------------------------------------|
B|---------------------------------------------------------------------------|
G|---------------------------------------------------------------------------|
D|---2-2-4-2-2-2-4-2-2-2-4-2-2-2-4-2-2-2-4-2-2-2-4-2-2-2-4-2-2-2-4-2---------|
A|---0-0-0-0-0-0-0-0-0-0-0-0-0-0-0-0-0-0-0-0-0-0-0-0-0-0-0-0-0-0-0-0---------|
E|---------------------------------------------------------------------------|

e|---------------------------------------------------------------------------|
B|---------------------------------------------------------------------------|
G|---------------------------------------------------------------------------|
D|---2-2-4-2-2-2-4-2-2-2-4-2-2-2-4-2-2-2-4-2-2-2-4-2-2-2-4-2-2-2-4-2---------|
A|---0-0-0-0-0-0-0-0-0-0-0-0-0-0-0-0-0-0-0-0-0-0-0-0-0-0-0-0-0-0-0-0---------|
E|---------------------------------------------------------------------------|
 |
e|---------------------------------------------------------------------------|
B|----------------------------------------------14\--------------------------|
G|----------------------------------------------14\--------------------------|
D|----------------------------------------------14\--------------------------|
A|---------------------------------------------------------------------------|
E|---------------------------------------------------------------------------|

Instrumental Break
A5
e|---------------------------------------------------------------------------|
B|---5-5---5---5-5----------5-5----5----7--5---------------------------------|
G|---5-5---5---5-5--------2-5-5----5----7--5---------------------------------|
D|-------7---7-----7--2-4--------7----7-------7------------------------------|
A|---------------------------------------------------------------------------|
E|---------------------------------------------------------------------------|

Verse
e|---------------------------------------------------------------------------|
B|---------------------------------------------------------------------------|
G|---------------------------------------------------------------------------|
D|---2-2-4-2-2-2-4-2-2-2-4-2-2-2-4-2-2-2-4-2-2-2-4-2-2-2-4-2-2-2-4-2---------|
A|---0-0-0-0-0-0-0-0-0-0-0-0-0-0-0-0-0-0-0-0-0-0-0-0-0-0-0-0-0-0-0-0---------|
E|---------------------------------------------------------------------------|

e|---------------------------------------------------------------------------|
B|---------------------------------------------------------------------------|
G|---------------------------------------------------------------------------|
D|---2-2-4-2-2-2-4-2-2-2-4-2-2-2-4-2-2-2-4-2-2-2-4-2-2-2-4-2-2-2-4-2---------|
A|---0-0-0-0-0-0-0-0-0-0-0-0-0-0-0-0-0-0-0-0-0-0-0-0-0-0-0-0-0-0-0-0---------|
E|---------------------------------------------------------------------------|

Instrumental Break
A5
e|---------------------------------------------------------------------------|
B|-------17------------------------------------------------------------------|
G|---/18----18\--14-14\-9/-14--14\-9---14\-9--14\-9--14\-9----14-------------|
D|---------------14-14\-9/-14--14\-9---14\-9--14\-9--14\-9----14-------------|
A|---------------------------------------------------------------------------|
E|---------------------------------------------------------------------------|

Chorus
D5			A5
e|---------------------------------------------------------------------------|
B|--/-7-----/7-------2-------------------2-----------------------------------|
G|--/-7-----/7-------2-------14\-9-/-14--2--14-\-9-/14-----------------------|
D|--/-7-----/7-------2-------14\-9-/-14--2--14-\-9-/14-----------------------|
A|---------------------------------------------------------------------------|
E|---------------------------------------------------------------------------|

E5	    D5	   A5
e|---------------------------------------------------------------------------|
B|--/-9-----/7-------2-------------------2-----------------------------------|
G|--/-9-----/7-------2-------14\-9-/-14--2--14-\-9-/14-----------------------|
D|--/-9-----/7-------2-------14\-9-/-14--2--14-\-9-/14-----------------------|
A|---------------------------------------------------------------------------|
E|---------------------------------------------------------------------------|


e|------------------------------------------------------|
B|-2----------------2-------------------------14\-------|
G|-2----14\-9-/-14--2--14-\-9-/14-------------14\-------|
D|-2----14\-9-/-14--2--14-\-9-/14-------------14\-------|
A|------------------------------------------------------|
E|------------------------------------------------------|

-------------------------------------------------------------------------------
Hurriganes- Pretty Mona
Album: Jailbird (1979)
-------------------------------------------------------------------------------

Intro
e|-----------------------------------------|
B|-----------------------------------------|
G|--8--8--8---9-8--------------------------| 2x
D|--9--9--9-------9------------------------|
A|--9--9--9---------9--7-6-----------------|
E|--7--7--7----------------7---------------|


Verse
e|---------------------------------------------------------------------------|
B|----9----------------------------------------------------------------------|
G|----9---8--8---6--6---8--8-------------------------------------------------| 8x
D|----9---9--9---7--7---9--9-------------------------------------------------|
A|----7---9--9---7--7---9--9-------------------------------------------------|
E|--------7--7---5--5---7--7-------------------------------------------------|

Chorus
e|---------------------------------------------------------------------------|
B|----------------------5--5-5---5--5-5--------------------------------------|
G---6--6-6--6--6-6------6--6-6---6--6-6---3--3-3---3--3-3---4-4-4-4-4-4-4-4--|
D|--7--7-7--7--7-7------6--6-6---6--6-6---4--4-4---4--4-4---4-4-4-4-4-4-4-4--|
A|--7--7-7--7--7-7------4--4-4---4--4-4---4--4-4---4--4-4---2-2-2-2-2-2-2-2--|
E|--5--5-5--5--5-5------------------------2--2-2---2--2-2--------------------|

Verse
e|---------------------------------------------------------------------------|
B|----9----------------------------------------------------------------------|
G|----9---8--8---6--6---8--8-------------------------------------------------| 8x
D|----9---9--9---7--7---9--9-------------------------------------------------|
A|----7---9--9---7--7---9--9-------------------------------------------------|
E|--------7--7---5--5---7--7-------------------------------------------------|

Chorus
e|---------------------------------------------------------------------------|
B|----------------------5--5-5---5--5-5--------------------------------------|
G---6--6-6--6--6-6------6--6-6---6--6-6---3--3-3---3--3-3---4-4-4-4-4-4-4-4--|
D|--7--7-7--7--7-7------6--6-6---6--6-6---4--4-4---4--4-4---4-4-4-4-4-4-4-4--|
A|--7--7-7--7--7-7------4--4-4---4--4-4---4--4-4---4--4-4---2-2-2-2-2-2-2-2--|
E|--5--5-5--5--5-5------------------------2--2-2---2--2-2--------------------|

Solo  C#m                           A
e|--9--9-------9-------------------------------------------------------------|
B|-------12b14---12-------------------------10-9-----------------------------|
G|------------------11b13r11-9----11-9-11-9-------9----11p9----9----9\-------|
D|-----------------------------11-------------------11------11---11----------|
A|---------------------------------------------------------------------------|
E|---------------------------------------------------------------------------|

  F#                                   B
e|--------------------------------------7---9----11----12--14--12------------|
B|---------------------------------------------------------------------------|
G|------2-4b6r4-2---4-2-------2------/8--/9--/11----/13--/14---13------------|
D|--2-4-----------4-----4-2-4---4--------------------------------------------|
A|---------------------------------------------------------------------------|
E|---------------------------------------------------------------------------|

Verse
e|---------------------------------------------------------------------------|
B|----9----------------------------------------------------------------------|
G|----9---8--8---6--6---8--8-------------------------------------------------| 8x
D|----9---9--9---7--7---9--9-------------------------------------------------|
A|----7---9--9---7--7---9--9-------------------------------------------------|
E|--------7--7---5--5---7--7-------------------------------------------------|

Chorus
e|---------------------------------------------------------------------------|
B|----------------------5--5-5---5--5-5--------------------------------------|
G---6--6-6--6--6-6------6--6-6---6--6-6---3--3-3---3--3-3--------------------|
D|--7--7-7--7--7-7------6--6-6---6--6-6---4--4-4---4--4-4--------------------|
A|--7--7-7--7--7-7------4--4-4---4--4-4---4--4-4---4--4-4--------------------|
E|--5--5-5--5--5-5------------------------2--2-2---2--2-2--------------------|

Outro
e|-----------------------------------------|
B|-----------------------------------------|
G|--8--8--8---9-8--------------------------| 3x
D|--9--9--9-------9------------------------|
A|--9--9--9---------9--7-6-----------------|
E|--7--7--7----------------7---------------|


e|--0--------|
B|--0--------|
G|--1--------|
D|--2--------|
A|--2--------|
E|--0--------|

-------------------------------------------------------------------------------
Hurriganes- House Party
Album: Jailbird (1979)
-------------------------------------------------------------------------------

Intro
e|---------------------------------------------------------------------------|
B|--/15--12--------14-12-----/15--15--------14-12----------------------------|
G|--/16--12--------14-12-----/16--16--------14-12----------------------------|
D|-----------14-14-------14-----------14-14-------14-------------------------|
A|---------------------------------------------------------------------------|
E|---------------------------------------------------------------------------|

e|---------------------------------------------------------------------------|
B|--/15--12--------14-12-----/15--15-----------------------------------------|
G|--/16--12--------14-12-----/16--16-----------------------------------------|
D|-----------14-14-------14-------------14-----------------------------------|
A|--------------------------------------12--12-12-12-12----------------------|
E|------------------------------------------10-10-10-10----------------------|

e|---------------------------------------------------------------------------|
B|---------------------------------------------------------------------------|
G|--9-------------------9--9---9--9------------------------------------------|
D|--9----5---5---7--7---9--9---9--9---5--5--7--7---9-------------------------|
A|--7----5---5---7--7---7--7---7--7---5--5--7--7---7-------------------------|
E|-------3---3---5--5-----------------3--3--5--5------8--8--8--8-------------|

Verse
e|---------------------------------------------------------------------------|
B|---------------------------------------------------------------------------|
G|---------------------------------------------------------------------------|8x
D|---9-9-9-9---7-7-7-7-------------------------------------------------------|
A|---7-7-7-7---5-5-5-5---7-7-7-7--2-2-2-2------------------------------------|
E|-----------------------5-5-5-5--0-0-0-0------------------------------------|

Chorus
e|---------------------------------------------------------------------------|
B|---------------------------------------------------------------------------|
G|---------------------------------------------------------------------------|
D|--9-9-9-9-9-9-9-9-9-9-9-9-9-9-9-9--12-12-12-12-12-12-12-12-12-12-12-12-----|
A|--7-7-7-7-7-7-7-7-7-7-7-7-7-7-7-7--10-10-10-10-10-10-10-10-10-10-10-10-----|
E|---------------------------------------------------------------------------|

e|---------------------------------------------------------------------------|
B|---------------------------------------------------------------------------|
G|---------------------------------------------------------------------------|
D|--12-12-12-12-14-14-14-14-14-14-14-14-14-14-14-14-14-14-14-14--------------|
A|--10-10-10-10-12-12-12-12-12-12-12-12-12-12-12-12-12-12-12-12--------------|
E|---------------------------------------------------------------------------|

e|---------------------------------------------------------------------------|
B|------8---8----------------------------------------------------------------|
G|------7---7--9-------------------------------------------------------------|
D|------6---6--9-------------------------------------------------------------|
A|---7--7---7--7-------------------------------------------------------------|
E|----------------8-8-8-8----------------------------------------------------|

Verse
e|---------------------------------------------------------------------------|
B|---------------------------------------------------------------------------|
G|---------------------------------------------------------------------------|8x
D|---9-9-9-9---7-7-7-7-------------------------------------------------------|
A|---7-7-7-7---5-5-5-5---7-7-7-7--2-2-2-2------------------------------------|
E|-----------------------5-5-5-5--0-0-0-0------------------------------------|

Chorus
e|---------------------------------------------------------------------------|
B|---------------------------------------------------------------------------|
G|---------------------------------------------------------------------------|
D|--9-9-9-9-9-9-9-9-9-9-9-9-9-9-9-9--12-12-12-12-12-12-12-12-12-12-12-12-----|
A|--7-7-7-7-7-7-7-7-7-7-7-7-7-7-7-7--10-10-10-10-10-10-10-10-10-10-10-10-----|
E|---------------------------------------------------------------------------|

e|---------------------------------------------------------------------------|
B|---------------------------------------------------------------------------|
G|---------------------------------------------------------------------------|
D|--12-12-12-12-14-14-14-14-14-14-14-14-14-14-14-14-14-14-14-14--------------|
A|--10-10-10-10-12-12-12-12-12-12-12-12-12-12-12-12-12-12-12-12--------------|
E|---------------------------------------------------------------------------|

e|---------------------------------------------------------------------------|
B|------8---8----------------------------------------------------------------|
G|------7---7--9-------------------------------------------------------------|
D|------6---6--9-------------------------------------------------------------|
A|---7--7---7--7-------------------------------------------------------------|
E|----------------8-8-8-8----------------------------------------------------|

Solo
e|---------------------------------------------------------------------------|
B|--------15-----------------------------------------------------------------|
G|--14b16^^^^r14-12-14-12----------12----14-12----12b14r12----------12-12...-|
D|------------------------14-12-14----14-------14----------14-12-14----------|
A|---------------------------------------------------------------------------|
E|---------------------------------------------------------------------------|

e|----12-------12-------12-------12------------------------------------------|
B|-------12-15----12-15----15b17----15p12------------------------------------|
G|---------------------------------------14-12-----------12------------------|
D|---------------------------------------------14-12-14----------------------|
A|---------------------------------------------------------------------------|
E|---------------------------------------------------------------------------|

e|---------------------------------------------------------------------------|
B|------------------------------------------------------15-------------------|
G|-------9-11b13r11-9----9-9----9-9------------12-14b16^^^^r14-12-14-12------|
D|--9-11--------------11-----11-----11\--12-14-------------------------------|
A|---------------------------------------------------------------------------|
E|---------------------------------------------------------------------------|

e|---------------------------------------------------------------------------|
B|---------------------------------------------------------------------------|
G|-----------------7---------------------------------------------------------|
D|--14-12-14---7h9----5-----------5---7p5---5--------------------------------|
A|-----------------------7----5h7---7-----7---7p5---5-7----------------------|
E|-------------------------7----------------------7--------------------------|

Verse
e|---------------------------------------------------------------------------|
B|---------------------------------------------------------------------------|
G|---------------------------------------------------------------------------|4x
D|---9-9-9-9---7-7-7-7-------------------------------------------------------|
A|---7-7-7-7---5-5-5-5---7-7-7-7--2-2-2-2------------------------------------|
E|-----------------------5-5-5-5--0-0-0-0------------------------------------|

Chorus
e|---------------------------------------------------------------------------|
B|---------------------------------------------------------------------------|
G|---------------------------------------------------------------------------|
D|--9-9-9-9-9-9-9-9-9-9-9-9-9-9-9-9--12-12-12-12-12-12-12-12-12-12-12-12-----|
A|--7-7-7-7-7-7-7-7-7-7-7-7-7-7-7-7--10-10-10-10-10-10-10-10-10-10-10-10-----|
E|---------------------------------------------------------------------------|

e|---------------------------------------------------------------------------|
B|---------------------------------------------------------------------------|
G|---------------------------------------------------------------------------|
D|--12-12-12-12-14-14-14-14-14-14-14-14-14-14-14-14-14-14-14-14--------------|
A|--10-10-10-10-12-12-12-12-12-12-12-12-12-12-12-12-12-12-12-12--------------|
E|---------------------------------------------------------------------------|

e|---------------------------------------------------------------------------|
B|---------------------------------------------------------------------------|
G|---------------------------------------------------------------------------|
D|--9-9-9-9-9-9-9-9-9-9-9-9-9-9-9-9------------------------------------------|
A|--7-7-7-7-7-7-7-7-7-7-7-7-7-7-7-7------------------------------------------|
E|---------------------------------------------------------------------------|

e|---------------------------------------------------------------------------|
B|---------------------------------------------------------------------------|
G|---------------------------------------------------------------------------|
D|--9-9-9-9-9-9-9-9-9-9-9-9-9-9-9-9--12-12-12-12-12-12-12-12-12-12-12-12-----|
A|--7-7-7-7-7-7-7-7-7-7-7-7-7-7-7-7--10-10-10-10-10-10-10-10-10-10-10-10-----|
E|---------------------------------------------------------------------------|

e|---------------------------------------------------------------------------|
B|------8---8----------------------------------------------------------------|
G|------7---7--9--------------9----------------------------------------------|
D|------6---6--9--------------9----------------------------------------------|
A|---7--7---7--7-10-10-10-10--7----------------------------------------------|
E|----------------8--8--8--8-------------------------------------------------|

-------------------------------------------------------------------------------
Hurriganes- Get Along
Album: Jailbird (1979)
-------------------------------------------------------------------------------

Intro
e|--5-5-5-5-5-----------5-5-5-5-5---------5---------5------------------------|
B|--5-5-5-5-5-7-5-------5-5-5-5-5-7-5-----5-7-5-----5-7-5-----7br8-----------|
G|------------7-5h6---------------7-5h6-----7-5h6-----7-5h6---7br9-----------|
D|------------------7-------------------7---------7---------7----------------|
A|---------------------------------------------------------------------------|
E|---------------------------------------------------------------------------|

Verse
e|---------------------------------------------------------------------------|
B|---------------------------------------------------------------------------|
G|---------------------------------------------------------------------------|
D|---2-2-4-2-2-2-4-2-2-2-4-2-2-2-4-2-2-2-4-2-2-2-4-2-2-2-4-2-2-2-4-2---------|
A|---0-0-0-0-0-0-0-0-0-0-0-0-0-0-0-0-0-0-0-0-0-0-0-0-0-0-0-0-0-0-0-0---------|
E|---------------------------------------------------------------------------|

e|---------------------------------------------------------------------------|
B|---------------------------------------------------------------------------|
G|---2-2-4-2-2-2-4-2-2-2-4-2-2-2-4-2-----------------------------------------|
D|---0-0-0-0-0-0-0-0-0-0-0-0-0-0-0-0-2-2-4-2-2-2-4-2-2-2-4-2-2-2-4-2---------|
A|-----------------------------------0-0-0-0-0-0-0-0-0-0-0-0-0-0-0-0---------|
E|---------------------------------------------------------------------------|

Chorus
e|---------------------------------------------------------------------------|
B|---------------------------------------------------------------------------|
G|-------------------2-2-4-2-2-2-4-2-----------------------------------------|
D|-------------------0-0-0-0-0-0-0-0-2-2-4-2-2-2-4-2--2-2-4-2-2-2-4-2--------|
A|---2-2-4-2-2-2-4-2-----------------0-0-0-0-0-0-0-0--0-0-0-0-0-0-0-0--------|
E|---0-0-0-0-0-0-0-0---------------------------------------------------------|

Verse
e|---------------------------------------------------------------------------|
B|---------------------------------------------------------------------------|
G|---------------------------------------------------------------------------|
D|---2-2-4-2-2-2-4-2-2-2-4-2-2-2-4-2-2-2-4-2-2-2-4-2-2-2-4-2-2-2-4-2---------|
A|---0-0-0-0-0-0-0-0-0-0-0-0-0-0-0-0-0-0-0-0-0-0-0-0-0-0-0-0-0-0-0-0---------|
E|---------------------------------------------------------------------------|

e|---------------------------------------------------------------------------|
B|---------------------------------------------------------------------------|
G|---2-2-4-2-2-2-4-2-2-2-4-2-2-2-4-2-----------------------------------------|
D|---0-0-0-0-0-0-0-0-0-0-0-0-0-0-0-0-2-2-4-2-2-2-4-2-2-2-4-2-2-2-4-2---------|
A|-----------------------------------0-0-0-0-0-0-0-0-0-0-0-0-0-0-0-0---------|
E|---------------------------------------------------------------------------|

Chorus
e|---------------------------------------------------------------------------|
B|---------------------------------------------------------------------------|
G|-------------------2-2-4-2-2-2-4-2-----------------------------------------|
D|-------------------0-0-0-0-0-0-0-0-2-2-4-2-2-2-4-2--2-2-4-2-2-2-4-2--------|
A|---2-2-4-2-2-2-4-2-----------------0-0-0-0-0-0-0-0--0-0-0-0-0-0-0-0--------|
E|---0-0-0-0-0-0-0-0---------------------------------------------------------|

Solo |--4x--|
e|---5-5-------------------------------------17------------------------------|
B|---5-5-7-5-----------------------------------------------------------------|
G|-------7-5---16b18r16-14----14-------16b18^^^^r16-14----14-14----14-14-----|
D|-------------------------16----16-14-----------------16-------16-------16--|
A|---------------------------------------------------------------------------|
E|---------------------------------------------------------------------------|

e|---------------------------------------------------------------------------|
B|---------------------------17-17-17-17-17-17-17-17-------------------------|
G|-----14-14----14----14--16b18-18-18-18-18-18-18-18r16-14----14-14----------|
D|-/16-------16----16--------------------------------------16-------16-------|
A|---------------------------------------------------------------------------|
E|---------------------------------------------------------------------------|

e|---------------------------------------------------------------------------|
B|--17-17-15-15--12---------------------5---5---7---5---7---5--/8-8-8-8-8----|
G|--18-18-16-16--13h14-11-9-9-11-5------5---5---7---5---7---5--/9-9-9-9-9----|
D|---------------------------------7------7---7---7---7---7------------------|
A|------------------------------------7--------------------------------------|
E|---------------------------------------------------------------------------|

Verse
e|---------------------------------------------------------------------------|
B|---------------------------------------------------------------------------|
G|---------------------------------------------------------------------------|
D|---2-2-4-2-2-2-4-2-2-2-4-2-2-2-4-2-2-2-4-2-2-2-4-2-2-2-4-2-2-2-4-2---------|
A|---0-0-0-0-0-0-0-0-0-0-0-0-0-0-0-0-0-0-0-0-0-0-0-0-0-0-0-0-0-0-0-0---------|
E|---------------------------------------------------------------------------|

e|---------------------------------------------------------------------------|
B|---------------------------------------------------------------------------|
G|---2-2-4-2-2-2-4-2-2-2-4-2-2-2-4-2-----------------------------------------|
D|---0-0-0-0-0-0-0-0-0-0-0-0-0-0-0-0-2-2-4-2-2-2-4-2-2-2-4-2-2-2-4-2---------|
A|-----------------------------------0-0-0-0-0-0-0-0-0-0-0-0-0-0-0-0---------|
E|---------------------------------------------------------------------------|

Chorus
e|---------------------------------------------------------------------------|
B|---------------------------------------------------------------------------|
G|-------------------2-2-4-2-2-2-4-2-----------------------------------------|
D|-------------------0-0-0-0-0-0-0-0-2-2-4-2-2-2-4-2--2-2-4-2-2-2-4-2--------|
A|---2-2-4-2-2-2-4-2-----------------0-0-0-0-0-0-0-0--0-0-0-0-0-0-0-0--------|
E|---0-0-0-0-0-0-0-0---------------------------------------------------------|

Solo
e|----------------------------------------------------------------8-----8----|
B|--8-8-8-8-8-8-8-8-10-10-8-8-7-7-5---------5---7p5---------8----------------|
G|--9-9-9-9-9-9-9-9-11-11-9-9-7-7-5h6-------5---7p5---5-7b9---7b9---7b9------|
D|------------------------------------7-5-7---7-----7------------------------|
A|---------------------------------------------------------------------------|
E|---------------------------------------------------------------------------|

e|---------------------------------------------------------------------------|
B|------------5---------------8-8-7-8-8-8-8-7-7-5----------------------------|
G|--7b9r7-5-----/7-7---5------9-9-7-9-9-9-9-7-7-5h6--------------------------|
D|----------7--x-----7---7-5------------------------7-5----------------------|
A|---------------------------------------------------------------------------|
E|---------------------------------------------------------------------------|

e|----------------------------------------------14-12---12-------------------|
B|-12-12-12-12-12----10-10----10----10-12b14-14------14----14--12--10--10-10-|
G|-13-13-13-13-13-/11------11----11--------------------------14--11--11------|
D|---------------------------------------------------------------------------|
A|---------------------------------------------------------------------------|
E|---------------------------------------------------------------------------|

Verse
e|---------------------------------------------------------------------------|
B|---------------------------------------------------------------------------|
G|---------------------------------------------------------------------------|
D|---2-2-4-2-2-2-4-2-2-2-4-2-2-2-4-2-2-2-4-2-2-2-4-2-2-2-4-2-2-2-4-2---------|
A|---0-0-0-0-0-0-0-0-0-0-0-0-0-0-0-0-0-0-0-0-0-0-0-0-0-0-0-0-0-0-0-0---------|
E|---------------------------------------------------------------------------|

e|---------------------------------------------------------------------------|
B|---------------------------------------------------------------------------|
G|---2-2-4-2-2-2-4-2-2-2-4-2-2-2-4-2-----------------------------------------|
D|---0-0-0-0-0-0-0-0-0-0-0-0-0-0-0-0-2-2-4-2-2-2-4-2-2-2-4-2-2-2-4-2---------|
A|-----------------------------------0-0-0-0-0-0-0-0-0-0-0-0-0-0-0-0---------|
E|---------------------------------------------------------------------------|

Chorus
e|---------------------------------------------------------------------------|
B|-----------------------------------2-2----2--------2-----------------------|
G|-------------------2-2-4-2-2-2-4-2-2-2----2--------2-----------------------|
D|-------------------0-0-0-0-0-0-0-0-----4-----4-2---------------------------|
A|---2-2-4-2-2-2-4-2------------------------------------5-6-7----------------|
E|---0-0-0-0-0-0-0-0------------------------------------3-4-5----------------|

e|---------------------------------------------------------------------------|
B|---------------------------------------------------------------------------|
G|--------------------------5-7-5--------------------------------------------|
D|---------5---7p5----5-7-------------7--------------------------------------|
A|-----5-7---7------7-----------------7--------------------------------------|
E|--5-8-------------------------------5--------------------------------------|

-------------------------------------------------------------------------------
Hurriganes- Brand New Sucker
Album: Jailbird (1979)
-------------------------------------------------------------------------------

Intro
e|---------------------------------------------------------------------------|
B|---------------------------------------------------------------------------|
G|---------------------------------------------------------------------------|
D|---------------------------------------------------------------------------|
A|--2-2-2-2-2-2-2-2-2-2-2-2-2-2-2-2-2-2-2-2-2-2-2-2-2-2-2-2-2-2-2-2----------|
E|--0-0-0-0-0-0-0-0-0-0-0-0-0-0-0-0-0-0-0-0-0-0-0-0-0-0-0-0-0-0-0-0----------|

Verse
e|---------------------------------------------------------------------------|
B|---------------------------------------------------------------------------|
G|---------------------------------------------------------------------------|
D|---------------------------------------------------------------------------|
A|--2-2-2-2-2-2-2-2-2-2-2-2-2-2-2-2-2-2-2-2-2-2-2-2-2-2-2-2-2-2-2-2----------|
E|--0-0-0-0-0-0-0-0-0-0-0-0-0-0-0-0-0-0-0-0-0-0-0-0-0-0-0-0-0-0-0-0----------|

e|---------------------------------------------------------------------------|
B|---------------------------------------------------------------------------|
G|---------------------------------------------------------------------------|
D|--2--4---------------------------------------------------------------------|
A|--0--2--2-0--------2-2-2-2-2-2-2-2-2-2-2-2-2-2-----------------------------|
E|------------3b4-0--0-0-0-0-0-0-0-0-0-0-0-0-0-0-----------------------------|

e|---------------------------------------------------------------------------|
B|---------------------------------------------------------------------------|
G|---------------------------------------------------------------------------|
D|---------------------------------------------------------------------------|
A|--2-2-2-2-2-2-2-2-2-2-2-2-2-2-2-2-2-2-2-2-2-2-2-2-2-2-2-2-2-2-2-2----------|
E|--0-0-0-0-0-0-0-0-0-0-0-0-0-0-0-0-0-0-0-0-0-0-0-0-0-0-0-0-0-0-0-0----------|

e|---------------------------------------------------------------------------|
B|---------------------------------------------------------------------------|
G|---------------------------------------------------------------------------|
D|--2--4---------------------------------------------------------------------|
A|--0--2--2-0--------2-2-2-2-2-2-2-2-2-2-2-2-2-2-----------------------------|
E|------------3b4-0--0-0-0-0-0-0-0-0-0-0-0-0-0-0-----------------------------|

Chorus
e|------9-9-9-8-9-----4-4-4-3-4----------------------------------------------|
B|------8-8-8-7-8-----3-3-3-2-3---2---4-2---4-2---4-2---4-4-4-4-4-4-...-4\---|
G|------9-9-9-8-9-----4-4-4-3-4---2---4-2---4-2---4-2---4-4-4-4-4-4-...-4\---|
D|---2------------------------------4-----4-----4-----4----------------------|
A|---0-------------2---------------------------------------------------------|
E|-----------------0---------------------------------------------------------|

e|---------------------------------------------------------------------------|
B|---------------------------------------------------------------------------|
G|---------------------------------------------------------------------------|
D|---------------------------------------------------------------------------|
A|--2-2-2-2-2-2-2-2-2-2-2-2-2-2-2-2-2-2-2-2-2-2-2-2-2-2-2-2-2-2-2-2----------|
E|--0-0-0-0-0-0-0-0-0-0-0-0-0-0-0-0-0-0-0-0-0-0-0-0-0-0-0-0-0-0-0-0----------|

Verse
e|---------------------------------------------------------------------------|
B|---------------------------------------------------------------------------|
G|---------------------------------------------------------------------------|
D|---------------------------------------------------------------------------|
A|--2-2-2-2-2-2-2-2-2-2-2-2-2-2-2-2-2-2-2-2-2-2-2-2-2-2-2-2-2-2-2-2----------|
E|--0-0-0-0-0-0-0-0-0-0-0-0-0-0-0-0-0-0-0-0-0-0-0-0-0-0-0-0-0-0-0-0----------|

e|---------------------------------------------------------------------------|
B|---------------------------------------------------------------------------|
G|---------------------------------------------------------------------------|
D|--2--4---------------------------------------------------------------------|
A|--0--2--2-0--------2-2-2-2-2-2-2-2-2-2-2-2-2-2-----------------------------|
E|------------3b4-0--0-0-0-0-0-0-0-0-0-0-0-0-0-0-----------------------------|

e|---------------------------------------------------------------------------|
B|---------------------------------------------------------------------------|
G|---------------------------------------------------------------------------|
D|---------------------------------------------------------------------------|
A|--2-2-2-2-2-2-2-2-2-2-2-2-2-2-2-2-2-2-2-2-2-2-2-2-2-2-2-2-2-2-2-2----------|
E|--0-0-0-0-0-0-0-0-0-0-0-0-0-0-0-0-0-0-0-0-0-0-0-0-0-0-0-0-0-0-0-0----------|

e|---------------------------------------------------------------------------|
B|---------------------------------------------------------------------------|
G|---------------------------------------------------------------------------|
D|--2--4---------------------------------------------------------------------|
A|--0--2--2-0--------2-2-2-2-2-2-2-2-2-2-2-2-2-2-----------------------------|
E|------------3b4-0--0-0-0-0-0-0-0-0-0-0-0-0-0-0-----------------------------|

Chorus
e|------9-9-9-8-9-----4-4-4-3-4------------------------------7-----7-----7---|
B|------8-8-8-7-8-----3-3-3-2-3---2---4-2---4-2---4-2---10b12-10b12-10b12----|
G|------9-9-9-8-9-----4-4-4-3-4---2---4-2---4-2---4-2------------------------|
D|---2------------------------------4-----4-----4-----4----------------------|
A|---0-------------2---------------------------------------------------------|
E|-----------------0---------------------------------------------------------|

Solo
e|--------7-----5-5-5-/5-5-5-5-5--5-5-5-/5-5-5-5-5--0-0----------------------|
B|--10b12---10\-5-5-5-/5-5-5-5-5--5-5-5-/5-5-5-5-5--0-0-----------------3----|
G|------------------------------------------------------2-2-0h1---0-2b4------|
D|--------------------------------------------------------------2------------|
A|---------------------------------------------------------------------------|
E|---------------------------------------------------------------------------|

e|----------------------------------------7-7-7-7-7-7-7-7--------------------|
B|------------------4-2---4---2--4--------7-7-7-7-7-7-7-7--------------------|
G|---4r2-0------2---4-2---4---2--4----2-------------------9-7h9p7---9-7\-----|
D|---------2-0----4-----4---4---4--4----4-------------------------9----------|
A|---------------------------------------------------------------------------|
E|---------------------------------------------------------------------------|

e|---------------------------------------------------------------------------|
B|---------------------------------------------------------------------------|
G|---------------------------------------------------------------------------|
D|---------------------------------------------------------------------------|
A|--2-2-2-2-2-2-2-2-2-2-2-2-2-2-2-2-2-2-2-2-2-2-2-2-2-2-2-2-2-2-2-2----------|
E|--0-0-0-0-0-0-0-0-0-0-0-0-0-0-0-0-0-0-0-0-0-0-0-0-0-0-0-0-0-0-0-0----------|

Verse
e|---------------------------------------------------------------------------|
B|---------------------------------------------------------------------------|
G|---------------------------------------------------------------------------|
D|---------------------------------------------------------------------------|
A|--2-2-2-2-2-2-2-2-2-2-2-2-2-2-2-2-2-2-2-2-2-2-2-2-2-2-2-2-2-2-2-2----------|
E|--0-0-0-0-0-0-0-0-0-0-0-0-0-0-0-0-0-0-0-0-0-0-0-0-0-0-0-0-0-0-0-0----------|

e|---------------------------------------------------------------------------|
B|---------------------------------------------------------------------------|
G|---------------------------------------------------------------------------|
D|--2--4---------------------------------------------------------------------|
A|--0--2--2-0--------2-2-2-2-2-2-2-2-2-2-2-2-2-2-----------------------------|
E|------------3b4-0--0-0-0-0-0-0-0-0-0-0-0-0-0-0-----------------------------|

e|---------------------------------------------------------------------------|
B|---------------------------------------------------------------------------|
G|---------------------------------------------------------------------------|
D|---------------------------------------------------------------------------|
A|--2-2-2-2-2-2-2-2-2-2-2-2-2-2-2-2-2-2-2-2-2-2-2-2-2-2-2-2-2-2-2-2----------|
E|--0-0-0-0-0-0-0-0-0-0-0-0-0-0-0-0-0-0-0-0-0-0-0-0-0-0-0-0-0-0-0-0----------|

e|---------------------------------------------------------------------------|
B|---------------------------------------------------------------------------|
G|---------------------------------------------------------------------------|
D|--2--4---------------------------------------------------------------------|
A|--0--2--2-0--------2-2-2-2-2-2-2-2-2-2-2-2-2-2-----------------------------|
E|------------3b4-0--0-0-0-0-0-0-0-0-0-0-0-0-0-0-----------------------------|

Chorus
e|------9-9-9-8-9-----4-4-4-3-4------------------------------7-----7-----7---|
B|------8-8-8-7-8-----3-3-3-2-3---2---4-2---4-2---4-2---10b12-10b12-10b12----|
G|------9-9-9-8-9-----4-4-4-3-4---2---4-2---4-2---4-2------------------------|
D|---2------------------------------4-----4-----4-----4----------------------|
A|---0-------------2---------------------------------------------------------|
E|-----------------0---------------------------------------------------------|

e|------9-9-9-8-9-----4-4-4-3-4----------------------------------------------|
B|------8-8-8-7-8-----3-3-3-2-3---2---4-2--------2---4p2---2-----------------|
G|------9-9-9-8-9-----4-4-4-3-4---2---4-2--------2---4p2---2-----------------|
D|---2------------------------------4-----4--2-4---4-----4-------------------|
A|---0-------------2---------------------------------------------------------|
E|-----------------0---------------------------------------------------------|



e|----------7-------7--------------------------------------------------------|
B|------------10b12---10p7---7-----------------------------------------------|
G|----9b11-----------------9---9---7-----------------------------------------|
D|-------------------------------9---9---------------------------------------|
A|---------------------------------------------------------------------------|
E|---------------------------------------------------------------------------|

e|---------------------------------------------------------------------------|
B|---------------------------------------------------------------------------|
G|---------------------------------------------------------------------------|
D|---------------------------------------------------------------------------|
A|--2-2-2-2-2-2-2-2-2-2-2-2-2-2-2-2-2----2-2-2-------------------------------|
E|--0-0-0-0-0-0-0-0-0-0-0-0-0-0-0-0-0----0-0-0-------------------------------|

-------------------------------------------------------------------------------
Hurriganes-Miss Betty
Album: Jailbird (1979)
-------------------------------------------------------------------------------

Intro
e|---------------------------------------------------------------------------|
B|---------------------------------------------------------------------------|
G|-------7--5----------7--5----------7--5----------7--5----------------------|
D|-------7--5--7-5-----7--5--7-5-----7--5--7-5-----7--5--7-5-----------------|
A|---7-7-------7-5-7-7-------7-5-7-7-------7-5-7-7-------7-5-----------------|
E|---5-5-----------5-5-----------5-5-----------5-5---------------------------|

Verse
e|---------------------------------------------------------------------------|
B|---------------------------------------------------------------------------|
G|---------------------------------------------------------------------------|
D|----------------------------------7-7-7-7-7-7-7-7-7-7-7-7-7-7-7-7----------|
A|--7-7-7-7-7-7-7-7-7-7-7-7-7-7-7-7-5-5-5-5-5-5-5-5-5-5-5-5-5-5-5-5----------|
E|--5-5-5-5-5-5-5-5-5-5-5-5-5-5-5-5------------------------------------------|

e|---------------------------------------------------------------------------|
B|---------------------------------------------------------------------------|
G|-------7--5----------7--5--------------------------------------------------|
D|-------7--5--7-5-----7--5--7-5---------------------------------------------|
A|---7-7-------7-5-7-7-------7-5---------------------------------------------|
E|---5-5-----------5-5-------------------------------------------------------|

e|---------------------------------------------------------------------------|
B|---------------------------------------------------------------------------|
G|---------------------------------------------------------------------------|
D|----------------------------------7-7-7-7-7-7-7-7-7-7-7-7-7-7-7-7----------|
A|--7-7-7-7-7-7-7-7-7-7-7-7-7-7-7-7-5-5-5-5-5-5-5-5-5-5-5-5-5-5-5-5----------|
E|--5-5-5-5-5-5-5-5-5-5-5-5-5-5-5-5------------------------------------------|

e|---------------------------------------------------------------------------|
B|---------------------------------------------------------------------------|
G|-------7--5----------7--5--------------------------------------------------|
D|-------7--5--7-5-----7--5--7-5---------------------------------------------|
A|---7-7-------7-5-7-7-------7-5---------------------------------------------|
E|---5-5-----------5-5-------------------------------------------------------|

Chorus
e|---------------------------------------------------------------------------|
B|---------------------------------------------------------------------------|
G|--9--9-9-9-9-9-9--7--7-7-7-7--5------7--5-----------7--5-------------------|
D|--9--9-9-9-9-9-9--7--7-7-7-7--5------7--5--7-5------7--5--7-5--------------|
A|--7--7-7-7-7-7-7--5--5-5-5-5-----7-7-------7-5--7-7-------7-5--------------|
E|---------------------------------5-5------------5-5------------------------|

e|---------------------------------------------------------------------------|
B|---------------------------------------------------------------------------|
G|--9--9-9-9-9-9-9--7--7-7-7-7--5------7--5-----------7--5-------------------|
D|--9--9-9-9-9-9-9--7--7-7-7-7--5------7--5--7-5------7--5--7-5--------------|
A|--7--7-7-7-7-7-7--5--5-5-5-5-----7-7-------7-5--7-7-------7-5--------------|
E|---------------------------------5-5------------5-5------------------------|

Verse
e|---------------------------------------------------------------------------|
B|---------------------------------------------------------------------------|
G|---------------------------------------------------------------5-----------|
D|----------------------------------7-7-7-7-7-7-7-7-7-7-7-7-7-7--5-----------|
A|--7-7-7-7-7-7-7-7-7-7-7-7-7-7-7-7-5-5-5-5-5-5-5-5-5-5-5-5-5-5--------------|
E|--5-5-5-5-5-5-5-5-5-5-5-5-5-5-5-5------------------------------------------|

e|---------------------------------------------------------------------------|
B|---------------------------------------------------------------------------|
G|-------7--5----------7--5--------------------------------------------------|
D|-------7--5--7-5-----7--5--7-5---------------------------------------------|
A|---7-7-------7-5-7-7-------7-5---------------------------------------------|
E|---5-5-----------5-5-------------------------------------------------------|
e|---------------------------------------------------------------------------|

e|---------------------------------------------------------------------------|
B|---------------------------------------------------------------------------|
G|---------------------------------------------------------------5-----------|
D|----------------------------------7-7-7-7-7-7-7-7-7-7-7-7-7-7--5-----------|
A|--7-7-7-7-7-7-7-7-7-7-7-7-7-7-7-7-5-5-5-5-5-5-5-5-5-5-5-5-5-5--------------|
E|--5-5-5-5-5-5-5-5-5-5-5-5-5-5-5-5------------------------------------------|

e|---------------------------------------------------------------------------|
B|---------------------------------------------------------------------------|
G|-------7--5----------7--5--------------------------------------------------|
D|-------7--5--7-5-----7--5--7-5---------------------------------------------|
A|---7-7-------7-5-7-7-------7-5---------------------------------------------|
E|---5-5-----------5-5-------------------------------------------------------|

Chorus
e|---------------------------------------------------------------------------|
B|---------------------------------------------------------------------------|
G|--9--9-9-9-9-9-9--7--7-7-7-7--5------7--5-----------7--5-------------------|
D|--9--9-9-9-9-9-9--7--7-7-7-7--5------7--5--7-5------7--5--7-5--------------|
A|--7--7-7-7-7-7-7--5--5-5-5-5-----7-7-------7-5--7-7-------7-5--------------|
E|---------------------------------5-5------------5-5------------------------|

e|---------------------------------------------------------------------------|
B|---------------------------------------------------------------------------|
G|--9--9-9-9-9-9-9--7--7-7-7-7--5------7--5-----------7--5-------------------|
D|--9--9-9-9-9-9-9--7--7-7-7-7--5------7--5--7-5------7--5--7-5--------------|
A|--7--7-7-7-7-7-7--5--5-5-5-5-----7-7-------7-5--7-7-------7-5--------------|
E|---------------------------------5-5------------5-5------------------------|

Bridge
e|---------------------------------------------------------------------------|
B|---------------------------------------------------------------------------|
G|---------------------------------------------------------------------------|
D|----------------------------------5-5-5-5-5-5-5-5-5-5-5-5-5-5-5-5----------|
A|--7-7-7-7-7-7-7-7-7-7-7-7-7-7-7-7-3-3-3-3-3-3-3-3-3-3-3-3-3-3-3-3----------|
E|--5-5-5-5-5-5-5-5-5-5-5-5-5-5-5-5------------------------------------------|

e|---------------------------------------------------------------------------|
B|---------------------------------------------------------------------------|
G|-----------------------------5---------------------------------------------|
D|-7-7-7-7-7-7-7-7-7-7-7-7-7-7-5---------------------------------------------|
A|-5-5-5-5-5-5-5-5-5-5-5-5-5-5-----------------------------------------------|
E|---------------------------------------------------------------------------|

e|---------------------------------------------------------------------------|
B|---------------------------------------------------------------------------|
G|-------7--5----------7--5----------7--5----------7--5----------------------|
D|-------7--5--7-5-----7--5--7-5-----7--5--7-5-----7--5--7-5-----------------|
A|---7-7-------7-5-7-7-------7-5-7-7-------7-5-7-7-------7-5-----------------|
E|---5-5-----------5-5-----------5-5-----------5-5---------------------------|

Solo
e|---------------------------------------------------------------------------|
B|--9b10------------------------------------------7-7-8-10-10-8-7------------|
G|--9b10-9-7-9-8b8.5-----6-6-7-9-9-7-6-7-6-----6\----------------------------|
D|-------------------9-9-------------------7-7-------------------------------|
A|---------------------------------------------------------------------------|
E|---------------------------------------------------------------------------|

e|---------------------------------------------------------------------------|
B|--8-7----------------------------------------------------------------------|
G|------7-7-7-/9-9-9-9-9-9-9-9-9-8-7-5-7-5-----------------------------------|
D|------------/9-9-9-9-9-9-9-9-9-8-7-5-7-5-7-5-------------------------------|
A|-----------------------------------------7-5-------------------------------|
E|---------------------------------------------------------------------------|

e|---------------------------------------------------------------------------|
B|---------------------------------------------------------------------------|
G|-------7--5----------7--5----------7--5----------7--5----------------------|
D|-------7--5--7-5-----7--5--7-5-----7--5--7-5-----7--5--7-5-----------------|
A|---7-7-------7-5-7-7-------7-5-7-7-------7-5-7-7-------7-5-----------------|
E|---5-5-----------5-5-----------5-5-----------5-5---------------------------|

Verse
e|---------------------------------------------------------------------------|
B|---------------------------------------------------------------------------|
G|------------------------------------------------------------7b8r7~---------|
D|----------------------------------7-7-7-7-7-7-7-7-7-7-7-7-7----------------|
A|--7-7-7-7-7-7-7-7-7-7-7-7-7-7-7-7-5-5-5-5-5-5-5-5-5-5-5-5-5----------------|
E|--5-5-5-5-5-5-5-5-5-5-5-5-5-5-5-5------------------------------------------|

e|---------------------------------------------------------------------------|
B|---------------------------------------------------------------------------|
G|-------7--5----------7--5--------------------------------------------------|
D|-------7--5--7-5-----7--5--7-5---------------------------------------------|
A|---7-7-------7-5-7-7-------7-5---------------------------------------------|
E|---5-5-----------5-5-------------------------------------------------------|
e|---------------------------------------------------------------------------|

e|---------------------------------------------------------------------------|
B|---------------------------------------------------------------------------|
G|---------------------------------------------------------------5-----------|
D|----------------------------------7-7-7-7-7-7-7-7-7-7-7-7-7-7--5-----------|
A|--7-7-7-7-7-7-7-7-7-7-7-7-7-7-7-7-5-5-5-5-5-5-5-5-5-5-5-5-5-5--------------|
E|--5-5-5-5-5-5-5-5-5-5-5-5-5-5-5-5------------------------------------------|

e|---------------------------------------------------------------------------|
B|---------------------------------------------------------------------------|
G|-------7--5----------7--5--------------------------------------------------|
D|-------7--5--7-5-----7--5--7-5---------------------------------------------|
A|---7-7-------7-5-7-7-------7-5---------------------------------------------|
E|---5-5-----------5-5-------------------------------------------------------|

Chorus
e|---------------------------------------------------------------------------|
B|---------------------------------------------------------------------------|
G|--9--9-9-9-9-9-9--7--7-7-7-7--5------7--5-----------7--5-------------------|
D|--9--9-9-9-9-9-9--7--7-7-7-7--5------7--5--7-5------7--5--7-5--------------|
A|--7--7-7-7-7-7-7--5--5-5-5-5-----7-7-------7-5--7-7-------7-5--------------|
E|---------------------------------5-5------------5-5------------------------|

e|---------------------------------------------------------------------------|
B|---------------------------------------------------------------------------|
G|--9--9-9-9-9-9-9--7--7-7-7-7--5------7--5-----------7--5-------------------|
D|--9--9-9-9-9-9-9--7--7-7-7-7--5------7--5--7-5------7--5--7-5--------------|
A|--7--7-7-7-7-7-7--5--5-5-5-5-----7-7-------7-5--7-7-------7-5--------------|
E|---------------------------------5-5------------5-5------------------------|

Outro
e|---------------------------------------------------------------------------|
B|---------------------------------------------------------------------------|
G|-------7--5----------7--5----------7--5----------7--5----------------------|
D|-------7--5--7-5-----7--5--7-5-----7--5--7-5-----7--5--7-5-----------------|
A|---7-7-------7-5-7-7-------7-5-7-7-------7-5-7-7-------7-5-----------------|
E|---5-5-----------5-5-----------5-5-----------5-5---------------------------|

e|---------------------------------------------------------------------------|
B|---------------------------------------------------------------------------|
G|-------7--5----------7--5----------7--5----------7--5----------------------|
D|-------7--5--7-5-----7--5--7-5-----7--5--7-5-----7--5--7-5-----------------|
A|---7-7-------7-5-7-7-------7-5-7-7-------7-5-7-7-------7-5-----------------|
E|---5-5-----------5-5-----------5-5-----------5-5---------------------------|

e|---------------------------------------------------------------------------|
B|---------------------------------------------------------------------------|
G|-------7--5----------7--5----------7--5----------7--5----------------------|
D|-------7--5--7-5-----7--5--7-5-----7--5--7-5-----7--5--7-5-----------------|
A|---7-7-------7-5-7-7-------7-5-7-7-------7-5-7-7-------7-5-----------------|
E|---5-5-----------5-5-----------5-5-----------5-5---------------------------|

e|---------------------------------------------------------------------------|
B|---------------------------------------------------------------------------|
G|-------7--5----------7--5----------7--5----------7-------------------------|
D|-------7--5--7-5-----7--5--7-5-----7--5--7-5-----7---7---------------------|
A|---7-7-------7-5-7-7-------7-5-7-7-------7-5-7-7-----7---------------------|
E|---5-5-----------5-5-----------5-5-----------5-5-----5---------------------|

------------------------------------------------------------------------------
Hurriganes- Ya Ya
------------------------------------------------------------------------------

Rhythm Guitar:
      W                   W                   W
E||--------------------|-------------------|-------------------|
B||--------------------|-------------------|-------------------|
G||*--2----------------|--L----------------|--L----------------|
D||*--2----------------|--L----------------|--L----------------|
A||---0----------------|--L----------------|--L----------------|
E||--------------------|-------------------|-------------------|


  E  E  E  E  H             W                   W
------------------------||-------------------|-------------------|
--3--3--L---------------||-------------------|-------------------|
--2--2--L--2--L--------*||--L----------------|-------------------|
--0--0--L--2--L--------*||--L----------------|-------------------|
-----------0--L---------||--L----------------|-------------------|
------------------------||-------------------|-------------------|


  E  E  E  E  E  E  E  E     E  E  E  Q    E  E  E     E  E  E  E  E  E  E  E
--------------------------|-------------------------|--------------------------|
--------------------------|-------------------------|--------------------------|
--------------------------|-----------2-------------|--------------------------|
--2--2--4--2--2--2--4--2--|--2--2--4--2----2--4--2--|--2--2--4--2--2--2--4--2--|
--0--0--0--0--0--0--0--0--|--0--0--0--0----0--0--0--|--0--0--0--0--0--0--0--0--|
--------------------------|-------------------------|--------------------------|


  E  E  E  E  E  E  E  E     E  E  E  Q    E  E  E     E  E  E  Q    E  E  E
--------------------------|-------------------------|-------------------------|
--------------------------|-------------------------|-------------------------|
--2--2--4--2--2--2--4--2--|-----------2-------------|-----------2-------------|
--0--0--0--0--0--0--0--0--|--2--2--4--2----2--4--2--|--2--2--4--2----2--4--2--|
--------------------------|--0--0--0--0----0--0--0--|--0--0--0--0----0--0--0--|
--------------------------|-------------------------|-------------------------|


  E  E  E  E  E  E  E  E     E  E  E  E  E  E  E  E     E  E  E  Q    E  E  E
--------------------------|--------------------------|-------------------------|
--------------------------|--------------------------|-------------------------|
--------------------------|--2--2--4--2--2--2--4--2--|-----------2-------------|
--------------------------|--0--0--0--0--0--0--0--0--|--2--2--4--2----2--4--2--|
--2--2--4--2--2--2--4--2--|--------------------------|--0--0--0--0----0--0--0--|
--0--0--0--0--0--0--0--0--|--------------------------|-------------------------|


  E  E  E  E  E  E  E  E     E  E  E  E  E  E  E  E
--------------------------|--------------------------|
--------------------------|--------------------------|
--------------------------|--------------------------|
--------------------------|--2--2--4--2--2--2--4--2--|
-----2--2--2--2--2--2--2--|--0--0--0--0--0--0--0--0--|
-----0--0--0--0--0--0--0--|--------------------------|


  E  E  E  E  E  E  E  E     E  E  E  Q    E  E  E     E  E  E  Q    E  E  E
--------------------------|-------------------------|-------------------------|
--------------------------|-------------------------|-------------------------|
--2--2--4--2--2--2--4--2--|-----------2-------------|-----------2-------------|
--0--0--0--0--0--0--0--0--|--2--2--4--2----2--4--2--|--2--2--4--2----2--4--2--|
--------------------------|--0--0--0--0----0--0--0--|--0--0--0--0----0--0--0--|
--------------------------|-------------------------|-------------------------|


  E  E  E  E  E  E  E  E     E  E  E  E  E  E  E  E     E  E  E  Q    E  E  E
--------------------------|--------------------------|-------------------------|
--------------------------|--------------------------|-------------------------|
--------------------------|--2--2--4--2--2--2--4--2--|-----------2-------------|
--2--2--4--2--2--2--4--2--|--0--0--0--0--0--0--0--0--|--2--2--4--2----2--4--2--|
--0--0--0--0--0--0--0--0--|--------------------------|--0--0--0--0----0--0--0--|
--------------------------|--------------------------|-------------------------|


  E  E  E  Q    E  E  E     E  E  E  E  E  E  E  E     E  E  E  E  E  E  E  E
-------------------------|--------------------------|--------------------------|
-------------------------|--------------------------|--------------------------|
-----------2-------------|--------------------------|--2--2--4--2--2--2--4--2--|
--2--2--4--2----2--4--2--|--------------------------|--0--0--0--0--0--0--0--0--|
--0--0--0--0----0--0--0--|--2--2--4--2--2--2--4--2--|--------------------------|
-------------------------|--0--0--0--0--0--0--0--0--|--------------------------|


  E  E  E  Q    E  E  E     E  E  E  E  E  E  E  E     E  E  E  E  E  E  E  E
-------------------------|--------------------------|--------------------------|
-------------------------|--------------------------|--------------------------|
-----------2-------------|--------------------------|--------------------------|
--2--2--4--2----2--4--2--|--------------------------|--2--2--4--2--2--2--4--2--|
--0--0--0--0----0--0--0--|-----2--2--2--2--2--2--2--|--0--0--0--0--0--0--0--0--|
-------------------------|-----0--0--0--0--0--0--0--|--------------------------|


  E  E  E  E  E  E  E  E     E  E  E  Q    E  E  E     E  E  E  Q    E  E  E
--------------------------|-------------------------|-------------------------|
--------------------------|-------------------------|-------------------------|
--2--2--4--2--2--2--4--2--|-----------2-------------|-----------2-------------|
--0--0--0--0--0--0--0--0--|--2--2--4--2----2--4--2--|--2--2--4--2----2--4--2--|
--------------------------|--0--0--0--0----0--0--0--|--0--0--0--0----0--0--0--|
--------------------------|-------------------------|-------------------------|


  E  E  E  E  E  E  E  E     E  E  E  E  E  E  E  E     E  E  E  Q    E  E  E
--------------------------|--------------------------|-------------------------|
--------------------------|--------------------------|-------------------------|
--------------------------|--2--2--4--2--2--2--4--2--|-----------2-------------|
--2--2--4--2--2--2--4--2--|--0--0--0--0--0--0--0--0--|--2--2--4--2----2--4--2--|
--0--0--0--0--0--0--0--0--|--------------------------|--0--0--0--0----0--0--0--|
--------------------------|--------------------------|-------------------------|


  E  E  E  Q    E  E  E     E  E  E  E  E  E  E  E     E  E  E  E  E  E  E  E
-------------------------|--------------------------|--------------------------|
-------------------------|--------------------------|--------------------------|
-----------2-------------|--------------------------|--2--2--4--2--2--2--4--2--|
--2--2--4--2----2--4--2--|--------------------------|--0--0--0--0--0--0--0--0--|
--0--0--0--0----0--0--0--|--2--2--4--2--2--2--4--2--|--------------------------|
-------------------------|--0--0--0--0--0--0--0--0--|--------------------------|


  E  E  E  Q    E  E  E     E  E  E  E  E  E  E  E     E  E  E  E  E  E  E  E
-------------------------|--------------------------|--------------------------|
-------------------------|--------------------------|--------------------------|
-----------2-------------|--------------------------|--------------------------|
--2--2--4--2----2--4--2--|--------------------------|--2--2--4--2--2--2--4--2--|
--0--0--0--0----0--0--0--|-----2--2--2--2--2--2--2--|--0--0--0--0--0--0--0--0--|
-------------------------|-----0--0--0--0--0--0--0--|--------------------------|


  E  E  E  E  E  E  E  E     E  E  E  Q    E  E  E     E  E  E  Q    E  E  E
--------------------------|-------------------------|-------------------------|
--------------------------|-------------------------|-------------------------|
--2--2--4--2--2--2--4--2--|-----------2-------------|-----------2-------------|
--0--0--0--0--0--0--0--0--|--2--2--4--2----2--4--2--|--2--2--4--2----2--4--2--|
--------------------------|--0--0--0--0----0--0--0--|--0--0--0--0----0--0--0--|
--------------------------|-------------------------|-------------------------|


  E  E  E  E  E  E  E  E     E  E  E  E  E  E  E  E     E  E  E  Q    E  E  E
--------------------------|--------------------------|-------------------------|
--------------------------|--------------------------|-------------------------|
--------------------------|--2--2--4--2--2--2--4--2--|-----------2-------------|
--2--2--4--2--2--2--4--2--|--0--0--0--0--0--0--0--0--|--2--2--4--2----2--4--2--|
--0--0--0--0--0--0--0--0--|--------------------------|--0--0--0--0----0--0--0--|
--------------------------|--------------------------|-------------------------|


  E  E  E  Q    E  E  E     E  E  E  E  E  E  E  E     E  E  E  E  E  E  E  E
-------------------------|--------------------------|--------------------------|
-------------------------|--------------------------|--------------------------|
-----------2-------------|--------------------------|--2--2--4--2--2--2--4--2--|
--2--2--4--2----2--4--2--|--------------------------|--0--0--0--0--0--0--0--0--|
--0--0--0--0----0--0--0--|--2--2--4--2--2--2--4--2--|--------------------------|
-------------------------|--0--0--0--0--0--0--0--0--|--------------------------|


  E  E  E  Q    E  E  E     E  E  E  E  E  E  E  E     E  E  E  E  E  E  E  E
-------------------------|--------------------------|--------------------------|
-------------------------|--------------------------|--------------------------|
-----------2-------------|--------------------------|--------------------------|
--2--2--4--2----2--4--2--|--------------------------|--------------------------|
--0--0--0--0----0--0--0--|-----2--2--2--2--2--2--2--|--2--2--4--2--2--2--4--2--|
-------------------------|-----0--0--0--0--0--0--0--|--0--0--0--0--0--0--0--0--|


  E  E  E  E  E  E  E  E     E  E  E  Q    E  E  E     E  E  E  Q    E  E  E
--------------------------|-------------------------|-------------------------|
--------------------------|-------------------------|-------------------------|
--2--2--4--2--2--2--4--2--|-----------2-------------|-----------2-------------|
--0--0--0--0--0--0--0--0--|--2--2--4--2----2--4--2--|--2--2--4--2----2--4--2--|
--------------------------|--0--0--0--0----0--0--0--|--0--0--0--0----0--0--0--|
--------------------------|-------------------------|-------------------------|


  E  E  E  E  E  E  E  E     E  E  E  E  E  E  E  E     E  E  E  Q    E  E  E
--------------------------|--------------------------|-------------------------|
--------------------------|--------------------------|-------------------------|
--------------------------|--2--2--4--2--2--2--4--2--|-----------2-------------|
--------------------------|--0--0--0--0--0--0--0--0--|--2--2--4--2----2--4--2--|
--2--2--4--2--2--2--4--2--|--------------------------|--0--0--0--0----0--0--0--|
--0--0--0--0--0--0--0--0--|--------------------------|-------------------------|


  E  E  E  Q    E  E  E     E  E  E  E  E  E  E  E     E  E  E  E  E  E  E  E
-------------------------|--------------------------|--------------------------|
-------------------------|--------------------------|--------------------------|
-----------2-------------|--------------------------|--2--2--4--2--2--2--4--2--|
--2--2--4--2----2--4--2--|--------------------------|--0--0--0--0--0--0--0--0--|
--0--0--0--0----0--0--0--|--2--2--4--2--2--2--4--2--|--------------------------|
-------------------------|--0--0--0--0--0--0--0--0--|--------------------------|


  E  E  E  Q    E  E  E     E  E  H.
-------------------------|---------------------||
-------------------------|---------------------||
-----------2-------------|---------------------||
--2--2--4--2----2--4--2--|--2------------------||
--0--0--0--0----0--0--0--|--0------------------||
-------------------------|---------------------||


Solo

   E  E  E  E  E  E  E  E
|--------------------------|
|--------------------------|
|--------------------------|
|--------------2--2--4--2--|
|--0--0--3--4--------------|
|--------------------------|


              W
  E    S S E  Q.     E  E     E  E  E  E  E  E  E  S  S
---------------------------|----------------------------|
---------------------------|----------------------------|
--4br--L-2----2------------|--------------------2-------|
-----------4---------4--2--|--4-----------2--4-----4p-2-|
---------------------------|-----0--3--4----------------|
---------------------------|----------------------------|


           W
  E  E  E  Q    E  E  E     E  E  E  E  E  E  E  E
-------------------------|--------------------------|
-------------------------|--------------------------|
--2--2-----2----2--------|--------------------------|
--------4----------4--2--|--------------2--2--4--2--|
-------------------------|--0--0--3--4--------------|
-------------------------|--------------------------|


                 W             tr    tr
  E    S S E  E  Q    E  E     E     H.              E
----------------------------|---------------------------|
----------------------------|---------------------------|
--4br--L-2----2--2-------0--|--0(2)--0(2)------------4--|
-----------4----------4-----|---------------------------|
----------------------------|---------------------------|
----------------------------|---------------------------|


                                               W
  E   Q    E    E  E  E  E     S  S E  E  Q    E  E  E
------5---------------------|---------------------------|
----------------------------|-------5--7--5----5--7--5--|
--Lb-------4br--L--2-----2--|--4S-6---------------------|
----------------------4-----|---------------------------|
----------------------------|---------------------------|
----------------------------|---------------------------|


                  W                      W
         |-3-|
  S S E  S S S E  Q    E  E     E  E  E  Q.     E  E
--8-7-5----------------------|------------------------|
---------8-7-5----5----------|------------------------|
---------------7-------7--5--|-----7-----5---------5--|
-----------------------------|--7-----7---------7-----|
-----------------------------|------------------------|
-----------------------------|------------------------|


  E  E  E  E  E  E  E  E
--------------------------|
--------------------------|
--------------------------|
--------------------------|
-----7--7--7--7--7--7--7--|
--------------------------|

-------------------------------------------------------------------------------
Hurriganes- Lipstick-man
Album: Jailbird (1979)
-------------------------------------------------------------------------------

Intro
e|---------------------------------------------------------------------------|
B|---------------------------------------------------------------------------|
G|---------------------------------------------------------------------------|
D|---------------------------------------------------------------------------|
A|------0-0-------0-0------0-----0-0-0-----0-0-----0-0-----0-----0-0-0-------|
E|--3b4-------3b4------3b4---3b4-------3b4-----3b4-----3b4---3b4-------------|

Verse
e|----------2--2---------2--2----------2--2----------------------------------|
B|---2--2---3--3--2--2---3--3---2--2---3--3--2--2---3--3---------------------|
G|---2--2---2--2--2--2---2--2---2--2---2--2--2--2---2--2---------------------|
D|---2--2---0--0--2--2---0--0---2--2---0--0--2--2---0--0---------------------|
A|---0--0---------0--0----------0--0---------0--0----------------------------|
E|---------------------------------------------------------------------------|

Chorus
e|---0---0---2---2---0---0---2---2---0---0----2---2--------------------------|
B|---0---0---3---3---0---0---3---3---0---0----3---3--------------------------|
G|---1---1---2---2---1---1---2---2---1---1----2---2--------------------------|
D|---2---2---0---0---2---2---0---0---2---2----0---0--------------------------|
A|---2---2-----------2---2-----------2---2-----------------------------------|
E|---0---0-----------0---0-----------0---0-----------------------------------|

e|---------------------------------------------------------------------------|
B|---------------------------------------------------------------------------|
G|---------------------------------------------------------------------------|
D|---------------------------------------------------------------------------|
A|------0-0-------0-0------0-----0-0-0-----0-0-----0-0-----0-----0-0-0-------|
E|--3b4-------3b4------3b4---3b4-------3b4-----3b4-----3b4---3b4-------------|

Verse
e|----------2--2---------2--2----------2--2----------------------------------|
B|---2--2---3--3--2--2---3--3---2--2---3--3--2--2---3--3---------------------|
G|---2--2---2--2--2--2---2--2---2--2---2--2--2--2---2--2---------------------|
D|---2--2---0--0--2--2---0--0---2--2---0--0--2--2---0--0---------------------|
A|---0--0---------0--0----------0--0---------0--0----------------------------|
E|---------------------------------------------------------------------------|

Chorus
e|---0---0---2---2---0---0---2---2---0---0----2---2--------------------------|
B|---0---0---3---3---0---0---3---3---0---0----3---3--------------------------|
G|---1---1---2---2---1---1---2---2---1---1----2---2--------------------------|
D|---2---2---0---0---2---2---0---0---2---2----0---0--------------------------|
A|---2---2-----------2---2-----------2---2-----------------------------------|
E|---0---0-----------0---0-----------0---0-----------------------------------|

e|---------------------------------------------------------------------------|
B|---------------------------------------------------------------------------|
G|---------------------------------------------------------------------------|
D|---------------------------------------------------------------------------|
A|------0-0-------0-0------0-----0-0-0-----0-0-----0-0-----0-----0-0-0-------|
E|--3b4-------3b4------3b4---3b4-------3b4-----3b4-----3b4---3b4-------------|

Bridge
e|---2--2---2--2---2--2------------------------------------------------------|
B|---3--3---3--3---3--3---2--2---2--2----------------------------------------|
G|---2--2---2--2---2--2---2--2---2--2----------------------------------------|2x
D|---0--0---0--0---0--0---2--2---2--2----------------------------------------|
A|------------------------0--0---0--0----------------------------------------|
E|---------------------------------------------------------------------------|

e|---------------------------------------------------------------------------|
B|---------------------------------------------------------------------------|
G|---------------------------------------------------------------------------|
D|---9--9-9---9--9-9---9--9--9--9-9-9---9--9-9---9--9-9--9--9--9--9-9-9------|
A|--/7--7-7--/7--7-7--/7--7-/7--7-7-7--/7--7-7--/7--7-7-/7--7-/7--7-7-7------|
E|---------------------------------------------------------------------------|

Solo
e|----------------------------2------3----------2-----5-3-/5-5-3-------------|
B|-------------------------------3b5^^^r3---1-----3/5------------3b5r3-1-3-1-|
G|-------------2-4b6r4-2---2--------------2---2------------------------------|
D|---------2-4-----------4---------------------------------------------------|
A|---0--3-4------------------------------------------------------------------|
E|---------------------------------------------------------------------------|

e|---------------------------------------------------------------------------|
B|---------------------------------------------------------------------------|
G|--2-----2-----4b6r4-2---2--------------------------------------------------|
D|----2-4---4-2---------4---4\-----------------------------------------------|
A|---------------------------------------------------------------------------|
E|---------------------------------------------------------------------------|

Chorus
e|---0---0---2---2---0---0---2---2---0---0----2---2--------------------------|
B|---0---0---3---3---0---0---3---3---0---0----3---3--------------------------|
G|---1---1---2---2---1---1---2---2---1---1----2---2--------------------------|
D|---2---2---0---0---2---2---0---0---2---2----0---0--------------------------|
A|---2---2-----------2---2-----------2---2-----------------------------------|
E|---0---0-----------0---0-----------0---0-----------------------------------|

e|---------------------------------------------------------------------------|
B|---------------------------------------------------------------------------|
G|---------------------------------------------------------------------------|
D|---------------------------------------------------------------------------|
A|------0-0-------0-0------0-----0-0-0-----0-0-----0-0-----0-----0-0-0-------|
E|--3b4-------3b4------3b4---3b4-------3b4-----3b4-----3b4---3b4-------------|

Verse
e|----------2--2---------2--2----------2--2----------------------------------|
B|---2--2---3--3--2--2---3--3---2--2---3--3--2--2---3--3---------------------|
G|---2--2---2--2--2--2---2--2---2--2---2--2--2--2---2--2---------------------|
D|---2--2---0--0--2--2---0--0---2--2---0--0--2--2---0--0---------------------|
A|---0--0---------0--0----------0--0---------0--0----------------------------|
E|---------------------------------------------------------------------------|

Chorus
e|---0---0---2---2---0---0---2---2---0---0----2---2--------------------------|
B|---0---0---3---3---0---0---3---3---0---0----3---3--------------------------|
G|---1---1---2---2---1---1---2---2---1---1----2---2--------------------------|
D|---2---2---0---0---2---2---0---0---2---2----0---0--------------------------|
A|---2---2-----------2---2-----------2---2-----------------------------------|
E|---0---0-----------0---0-----------0---0-----------------------------------|

e|---------------------------------------------------------------------------|
B|---------------------------------------------------------------------------|
G|---------------------------------------------------------------------------|
D|---------------------------------------------------------------------------|
A|------0-0-------0-0------0-----0-0-0-----0-0-----0-0-----0-----0-0-0-------|
E|--3b4-------3b4------3b4---3b4-------3b4-----3b4-----3b4---3b4-------------|

e|---------------------------------------------------------------------------|
B|---------------------------------------------------------------------------|
G|---------------------------------------------------------------2-----------|
D|---------------------------------------------------------------2-----------|
A|------0-0-------0-0------0-----0-0-0-----0-0-----0-0-----0-----0-----------|
E|--3b4-------3b4------3b4---3b4-------3b4-----3b4-----3b4----3--------------|
Добавлено: 06.06.2013
Другие материалы по этой песне:
  • Аккорды и текст

Страница создана 06.06.2013
http://primanota.ru/hurriganes/jailbird-chords.htm
Привет, Гость.
Предлагаем пройти революционный курс по гитаре.
Подарок от PrimaNota.Ru, забирай!