PrimaNota.ru - самый крупный в мире бесплатный архив песенных текстов, аккордов, табулатур и нот


Hurriganes - Hip Down - таба, видео

Регистрация Запомнить меня
Войти через:  Facebook Google Twitter Vk Yandex Mail.ru

Hurriganes - Hip Down - таба, видео

Печатать
Просмотров: 69
-------------------------------------------------------------------------------
Hurriganes-Hip Down
Album: Jailbird (1979)
-------------------------------------------------------------------------------

Intro
e|---------------------------------------------------------------------------|
B|---------------------------------------------------------------------------|
G|---------------------------------------------------------------------------|
D|---2-2-4-2-2-2-4-2-2-2-4-2-2-2-4-2-2-2-4-2-2-2-4-2-2-2-4-2-2-2-4-2---------|
A|---0-0-0-0-0-0-0-0-0-0-0-0-0-0-0-0-0-0-0-0-0-0-0-0-0-0-0-0-0-0-0-0---------|
E|---------------------------------------------------------------------------|

Verse
e|---------------------------------------------------------------------------|
B|---------------------------------------------------------------------------|
G|---------------------------------------------------------------------------|
D|---2-2-4-2-2-2-4-2-2-2-4-2-2-2-4-2-2-2-4-2-2-2-4-2-2-2-4-2-2-2-4-2---------|
A|---0-0-0-0-0-0-0-0-0-0-0-0-0-0-0-0-0-0-0-0-0-0-0-0-0-0-0-0-0-0-0-0---------|
E|---------------------------------------------------------------------------|

e|---------------------------------------------------------------------------|
B|---------------------------------------------------------------------------|
G|---2-2-4-2-2-2-4-2-2-2-4-2-2-2-4-2-----------------------------------------|
D|---0-0-0-0-0-0-0-0-0-0-0-0-0-0-0-0-2-2-4-2-2-2-4-2-2-2-4-2-2-2-4-2---------|
A|-----------------------------------0-0-0-0-0-0-0-0-0-0-0-0-0-0-0-0---------|
E|---------------------------------------------------------------------------|

e|---------------------------------------------------------------------------|
B|---------------------------------------------------------------------------|
G|-------------------2-2-4-2-2-2-4-2-----------------------------------------|
D|-------------------0-0-0-0-0-0-0-0-2-2-4-2-2-2-4-2-------------------------|
A|---2-2-4-2-2-2-4-2-----------------0-0-0-0-0-0-0-0--2-2-2-2-2-2-2----------|
E|---0-0-0-0-0-0-0-0----------------------------------0-0-0-0-0-0-0----------|

Verse
e|---------------------------------------------------------------------------|
B|---------------------------------------------------------------------------|
G|---------------------------------------------------------------------------|
D|---2-2-4-2-2-2-4-2-2-2-4-2-2-2-4-2-2-2-4-2-2-2-4-2-2-2-4-2-2-2-4-2---------|
A|---0-0-0-0-0-0-0-0-0-0-0-0-0-0-0-0-0-0-0-0-0-0-0-0-0-0-0-0-0-0-0-0---------|
E|---------------------------------------------------------------------------|

e|---------------------------------------------------------------------------|
B|---------------------------------------------------------------------------|
G|---2-2-4-2-2-2-4-2-2-2-4-2-2-2-4-2-----------------------------------------|
D|---0-0-0-0-0-0-0-0-0-0-0-0-0-0-0-0-2-2-4-2-2-2-4-2-2-2-4-2-2-2-4-2---------|
A|-----------------------------------0-0-0-0-0-0-0-0-0-0-0-0-0-0-0-0---------|
E|---------------------------------------------------------------------------|

e|---------------------------------------------------------------------------|
B|---------------------------------------------------------------------------|
G|-------------------2-2-4-2-2-2-4-2-----------------------------------------|
D|-------------------0-0-0-0-0-0-0-0-2-2-4-2-2-2-4-2-------------------------|
A|---2-2-4-2-2-2-4-2-----------------0-0-0-0-0-0-0-0--2-2-2-2-2-2-2----------|
E|---0-0-0-0-0-0-0-0----------------------------------0-0-0-0-0-0-0----------|

Solo (w/wah-wah)
e|---------------------------------------------------------------------------|
B|------------------------------------------------17-------------------------|
G|--16b17-14-16b17-14----14-14-----------14----14----14----14-16b17-14----14-|
D|--------------------16-------16/-14/16----16----------16-------------16----|
A|---------------------------------------------------------------------------|
E|---------------------------------------------------------------------------|

e|-------------------------------------------------------------------------------|
B|--------------15-17------------------------------------------------------------|
G|-----14-16b17-------16b17-16b17-14----14----14-16-16b17----16-14---------------|
D|--16-------------------------------16----16-------------16-------16-10---------|
A|-----------------------------------------------------------------------12-x----|
E|----------------------------------------------------------------------------12-|

Verse
e|---------------------------------------------------------------------------|
B|---------------------------------------------------------------------------|
G|---------------------------------------------------------------------------|
D|---2-2-4-2-2-2-4-2-2-2-4-2-2-2-4-2-2-2-4-2-2-2-4-2-2-2-4-2-2-2-4-2---------|
A|---0-0-0-0-0-0-0-0-0-0-0-0-0-0-0-0-0-0-0-0-0-0-0-0-0-0-0-0-0-0-0-0---------|
E|---------------------------------------------------------------------------|

e|---------------------------------------------------------------------------|
B|---------------------------------------------------------------------------|
G|---2-2-4-2-2-2-4-2-2-2-4-2-2-2-4-2-----------------------------------------|
D|---0-0-0-0-0-0-0-0-0-0-0-0-0-0-0-0-2-2-4-2-2-2-4-2-2-2-4-2-2-2-4-2---------|
A|-----------------------------------0-0-0-0-0-0-0-0-0-0-0-0-0-0-0-0---------|
E|---------------------------------------------------------------------------|

e|---------------------------------------------------------------------------|
B|---------------------------------------------------------------------------|
G|-------------------2-2-4-2-2-2-4-2-----------------------------------------|
D|-------------------0-0-0-0-0-0-0-0-2-2-4-2-2-2-4-2-2-2-4-2-2-2-4-2---------|
A|---2-2-4-2-2-2-4-2-----------------0-0-0-0-0-0-0-0-0-0-0-0-0-0-0-0---------|
E|---0-0-0-0-0-0-0-0---------------------------------------------------------|

e|---------------------------------------------------------------------------|
B|---------------------------------------------------------------------------|
G|-------------------2-2-4-2-2-2-4-2-----------------------------------------|
D|-------------------0-0-0-0-0-0-0-0-2-2-4-2-2-2-4-2-2-2-4-2-2-2-4-2---------|
A|---2-2-4-2-2-2-4-2-----------------0-0-0-0-0-0-0-0-0-0-0-0-0-0-0-0---------|
E|---0-0-0-0-0-0-0-0---------------------------------------------------------|

e|---------------------------------------------------------------------------|
B|---------------------------------------2-2---2-----2-----------------------|
G|-------------------2-2-4-2-2-2-4-2-----2-2---2-----2-----------------------|
D|-------------------0-0-0-0-0-0-0-0--2------4---4-2----5--6--7-------7\-----|
A|---2-2-4-2-2-2-4-2------------------0-----------------5--6--7-------7\-----|
E|---0-0-0-0-0-0-0-0------------------------------------3--4--5-------5\-----|
Добавлено: 22.06.2013
Другие материалы по этой песне:
  • Аккорды и текст

Страница создана 22.06.2013
http://primanota.ru/hurriganes/hip-down-chords.htm
Привет, Гость.
Предлагаем пройти революционный курс по гитаре.
Подарок от PrimaNota.Ru, забирай!