PrimaNota.ru - самый крупный в мире бесплатный архив песенных текстов, аккордов, табулатур и нот


Hurriganes - Cozyrow - таба, видео

Регистрация Запомнить меня
Войти через:  Facebook Google Twitter Vk Yandex Mail.ru

Hurriganes - Cozyrow - таба, видео

Печатать
Просмотров: 76
-------------------------------------------------------------------------------
Hurriganes- Cozyrow
Album: 10/80 
-------------------------------------------------------------------------------

Intro
e|---------------------------------------------------------------------------|
B|---3--2---3--2-------------------------------------------------------------|
G|---2--2---2--2-------------------------------------------------------------|
D|---4--2---4--2-------------------------------------------------------------|
A|---0--0---0--0-------------------------------------------------------------|
E|---------------------------------------------------------------------------|

Verse
e|---------------------------------------------------------------------------|
B|---------------------------------------------------------------------------|
G|--2-2-----2-2-----2-2-----2-2----------------------------------------------|
D|--2-2-4-2-2-2-4-2-2-2-4-2-2-2-4-2------------------------------------------|
A|--0-0-0-0-0-0-0-0-0-0-0-0-0-0-0-0-4-4-4---4-4-4---4-4-4---4-4-4------------|
E|----------------------------------2-2-2-0-2-2-2-0-2-2-2-0-2-2-2-0----------|

e|---------------------------------------------------------------------------|
B|---------------------------------------------------------------------------|
G|--2-2-----2-2-----2-2-----2-2----------------------------------------------|
D|--2-2-4-2-2-2-4-2-2-2-4-2-2-2-4-2------------------------------------------|
A|--0-0-0-0-0-0-0-0-0-0-0-0-0-0-0-0-4-4-4---4-4-4---4-4-4---4-4-4------------|
E|----------------------------------2-2-2-0-2-2-2-0-2-2-2-0-2-2-2-0----------|

e|---------------------------------------------------------------------------|
B|--3--3--3--3--5--5--5--5--7--7--7--7--9-9-9-9-9-9-9------------------------|
G|--4--4--4--4--6--6--6--6--7--7--7--7--9-9-9-9-9-9-9------------------------|
D|--4--4--4--4--6--6--6--6--7--7--7--7--9-9-9-9-9-9-9------------------------|
A|--2--2--2--2--4--4--4--4--5--5--5--5--7-7-7-7-7-7-7------------------------|
E|---------------------------------------------------------------------------|

Verse
e|---------------------------------------------------------------------------|
B|---------------------------------------------------------------------------|
G|--2-2-----2-2-----2-2-----2-2----------------------------------------------|
D|--2-2-4-2-2-2-4-2-2-2-4-2-2-2-4-2------------------------------------------|
A|--0-0-0-0-0-0-0-0-0-0-0-0-0-0-0-0-4-4-4---4-4-4---4-4-4---4-4-4------------|
E|----------------------------------2-2-2-0-2-2-2-0-2-2-2-0-2-2-2-0----------|

e|---------------------------------------------------------------------------|
B|---------------------------------------------------------------------------|
G|--2-2-----2-2-----2-2-----2-2----------------------------------------------|
D|--2-2-4-2-2-2-4-2-2-2-4-2-2-2-4-2------------------------------------------|
A|--0-0-0-0-0-0-0-0-0-0-0-0-0-0-0-0-4-4-4---4-4-4---4-4-4---4-4-4------------|
E|----------------------------------2-2-2-0-2-2-2-0-2-2-2-0-2-2-2-0----------|

e|---------------------------------------------------------------------------|
B|--3--3--3--3--5--5--5--5--7--7--7--7--9--9--9------------------------------|
G|--4--4--4--4--6--6--6--6--7--7--7--7--9--9--9--8---------------------------|
D|--4--4--4--4--6--6--6--6--7--7--7--7--9--9--9--8---------------------------|
A|--2--2--2--2--4--4--4--4--5--5--5--5--7--7--7--6---------------------------|
E|---------------------------------------------------------------------------|


Bridge
   D                                Dm
e|---------------------------------------------------------------------------|
B|---------------------------------------------------------------------------|
G|---------------------------------------------------------------------------|
D|--7-7-9-7-7-7-9-7-7-7-9-7-7-7-9-7-7-7-9-7-7-7-9-7-7-7-9-7-7-7-9-7----------|
A|--5-5-5-5-5-5-5-5-5-5-5-5-5-5-5-5-5-5-5-5-5-5-5-5-5-5-5-5-5-5-5-5----------|
E|---------------------------------------------------------------------------|

    A                               E
e|---------------------------------------------------------------------------|
B|---------------------------------------------------------------------------|
G|---------------------------------------------------------------------------|
D|----------------------------------9-9-11-9-9-9-11-9-9-9-11-9-9-8-----------|
A|--7-7-9-7-7-7-9-7-7-7-9-7-7-7-9-7-7-7--7-7-7-7--7-7-7-7--7-7-7-6-----------|
E|--5-5-5-5-5-5-5-5-5-5-5-5-5-5-5-5------------------------------------------|

   D                                Dm
e|---------------------------------------------------------------------------|
B|---------------------------------------------------------------------------|
G|---------------------------------------------------------------------------|
D|--7-7-9-7-7-7-9-7-7-7-9-7-7-7-9-7-7-7-9-7-7-7-9-7-7-7-9-7-7-7-9-7----------|
A|--5-5-5-5-5-5-5-5-5-5-5-5-5-5-5-5-5-5-5-5-5-5-5-5-5-5-5-5-5-5-5-5----------|
E|---------------------------------------------------------------------------|

   A                F#             Bm               E
e|---------------------------------------------------------------------------|
B|---------------------------------------------------------------------------|
G|---------------------------------------------------------------------------|
D|----------------------------------4-4-4-4-4-4-4-4--------------------------|
A|--7-7-9-7-7-7-9-7-4-4-4-4-4-4-4-4-2-2-2-2-2-2-2-2-2-2-2-2-2-2-2-2----------|
E|--5-5-5-5-5-5-5-5-2-2-2-2-2-2-2-2-----------------0-0-0-0-0-0-0-0----------|

Solo  A                   F#m           A                 F#m 
e|---------------------------------------------------------------------------|
B|--12b14-12b14r12-10-12-12b14-10----12b14-12b14r12-10-12-12b14-10-----------|
G|--------------------------------11-------------------------------11-11-----|
D|---------------------------------------------------------------------------|
A|---------------------------------------------------------------------------|
E|---------------------------------------------------------------------------|

              Bm                C#m        D                E
e|---------------------------------------------------------------------------|
B|---------------10----10----10-12b14-12-----10----10----10-12b14-12---------|
G|------9----/11----11----11-------------/11----11----11---------------------|
D|-9/11---11-----------------------------------------------------------------|
A|---------------------------------------------------------------------------|
E|---------------------------------------------------------------------------|


Verse
e|---------------------------------------------------------------------------|
B|---------------------------------------------------------------------------|
G|--2-2-----2-2-----2-2-----2-2----------------------------------------------|
D|--2-2-4-2-2-2-4-2-2-2-4-2-2-2-4-2------------------------------------------|
A|--0-0-0-0-0-0-0-0-0-0-0-0-0-0-0-0-4-4-4---4-4-4---4-4-4---4-4-4------------|
E|----------------------------------2-2-2-0-2-2-2-0-2-2-2-0-2-2-2-0----------|

e|---------------------------------------------------------------------------|
B|---------------------------------------------------------------------------|
G|--2-2-----2-2-----2-2-----2-2----------------------------------------------|
D|--2-2-4-2-2-2-4-2-2-2-4-2-2-2-4-2------------------------------------------|
A|--0-0-0-0-0-0-0-0-0-0-0-0-0-0-0-0-4-4-4---4-4-4---4-4-4---4-4-4------------|
E|----------------------------------2-2-2-0-2-2-2-0-2-2-2-0-2-2-2-0----------|

e|---------------------------------------------------------------------------|
B|--3--3--3--3--5--5--5--5--7--7--7--7--9--9--9------------------------------|
G|--4--4--4--4--6--6--6--6--7--7--7--7--9--9--9--8---------------------------|
D|--4--4--4--4--6--6--6--6--7--7--7--7--9--9--9--8---------------------------|
A|--2--2--2--2--4--4--4--4--5--5--5--5--7--7--7--6---------------------------|
E|---------------------------------------------------------------------------|


Bridge
   D                                Dm
e|---------------------------------------------------------------------------|
B|---------------------------------------------------------------------------|
G|---------------------------------------------------------------------------|
D|--7-7-9-7-7-7-9-7-7-7-9-7-7-7-9-7-7-7-9-7-7-7-9-7-7-7-9-7-7-7-9-7----------|
A|--5-5-5-5-5-5-5-5-5-5-5-5-5-5-5-5-5-5-5-5-5-5-5-5-5-5-5-5-5-5-5-5----------|
E|---------------------------------------------------------------------------|

    A                               E
e|---------------------------------------------------------------------------|
B|---------------------------------------------------------------------------|
G|---------------------------------------------------------------------------|
D|----------------------------------9-9-11-9-9-9-11-9-9-9-11-9-9-8-----------|
A|--7-7-9-7-7-7-9-7-7-7-9-7-7-7-9-7-7-7--7-7-7-7--7-7-7-7--7-7-7-6-----------|
E|--5-5-5-5-5-5-5-5-5-5-5-5-5-5-5-5------------------------------------------|

   D                                Dm
e|---------------------------------------------------------------------------|
B|---------------------------------------------------------------------------|
G|---------------------------------------------------------------------------|
D|--7-7-9-7-7-7-9-7-7-7-9-7-7-7-9-7-7-7-9-7-7-7-9-7-7-7-9-7-7-7-9-7----------|
A|--5-5-5-5-5-5-5-5-5-5-5-5-5-5-5-5-5-5-5-5-5-5-5-5-5-5-5-5-5-5-5-5----------|
E|---------------------------------------------------------------------------|

   A                F#             Bm               E
e|---------------------------------------------------------------------------|
B|---------------------------------------------------------------------------|
G|---------------------------------------------------------------------------|
D|----------------------------------4-4-4-4-4-4-4-4--------------------------|
A|--7-7-9-7-7-7-9-7-4-4-4-4-4-4-4-4-2-2-2-2-2-2-2-2-2-2-2-2-2-2-2-2----------|
E|--5-5-5-5-5-5-5-5-2-2-2-2-2-2-2-2-----------------0-0-0-0-0-0-0-0----------|
Outro
e|---------------------------------------------------------------------------|
B|-----------------3--2------------------------------------------------------|
G|-----------------2--2---------------------------4b6-4-2--------------------|
D|-----------------4--2------------------------------------------------------|
A|-----------------0--0------------------------------------------------------|
E|---------------------------------------------------------------------------|
 |
e|---------------------------------------------------------------------------|
B|---------------------------------------------------------------------------|
G|--------------------------------------------------2------------------------|
D|--2-2-4-2-2-2-4-2-2---------------2-2-4-2-2-2-4-2-2------------------------|
A|--0-0-0-0-0-0-0-0-0---------------0-0-0-0-0-0-0-0-0------------------------|
E|---------------------------------------------------------------------------|
Добавлено: 15.06.2013
Другие материалы по этой песне:
  • Аккорды и текст

Страница создана 15.06.2013
http://primanota.ru/hurriganes/cozyrow-chords.htm
Привет, Гость.
Предлагаем пройти революционный курс по гитаре.
Подарок от PrimaNota.Ru, забирай!